Song name
# A B C D E F G H I J K L M N O P Q R S T U V W X Y Z

Collective Soul - December tab

Collective Soul - December
Tabs & Lyrics
Tuning: Standard
Tabbed by: Bart Galloway (bartong79@gmail.com)

Intro to Verse 1:

-|-----------3-----|-----------3-----|-----------3------|
-|-----3---3---3---|-----3---3---3---|-----3---3---3----|
-|---0---0-------0-|---0---0-------0-|---0---0-------0--|
-|-----------------|-----------------|------------------|
-|-----------------|-----------------|-3----------------|
-|-3---------------|-1---------------|------------------|

-|-----------------|-
-|-----3-----------|-
-|---0---0---0---0-|-
-|-----------------|-  X 2
-|-1-------1---2---|-
-|-----------------|-

Verse 1:

-|-----------3-----|-----------3-----|-----------3------|
-|-----3---3---3---|-----3---3---3---|-----3---3---3----|
-|---0---0-------0-|---0---0-------0-|---0---0-------0--|
-|-----------------|-----------------|------------------|
-|-----------------|-----------------|-3----------------|
-|-3---------------|-1---------------|------------------|

   Why drink the water from my hand,

-|-----------------|-
-|-----3-----------|-
-|---0---0---0---0-|-
-|-----------------|-
-|-1-------1---2---|-
-|-----------------|-

 Contagious as you think I am?

-|-----------3-----|-----------3-----|-----------3------|
-|-----3---3---3---|-----3---3---3---|-----3---3---3----|
-|---0---0-------0-|---0---0-------0-|---0---0-------0--|
-|-----------------|-----------------|------------------|
-|-----------------|-----------------|-3----------------|
-|-3---------------|-1---------------|------------------|

-|-----------------|-
-|-----3-----------|-
-|---0---0---0---0-|-
-|-----------------|-
-|-1-------1---2---|-
-|-----------------|-

-|-----------3-----|-----------3-----|-----------3------|
-|-----3---3---3---|-----3---3---3---|-----3---3---3----|
-|---0---0-------0-|---0---0-------0-|---0---0-------0--|
-|-----------------|-----------------|------------------|
-|-----------------|-----------------|-3----------------|
-|-3---------------|-1---------------|------------------|

   Just tilt my sun  towards your domain,

-|-----------------|-
-|-----3-----------|-
-|---0---0---0---0-|-
-|-----------------|-
-|-1-------1---2---|-
-|-----------------|-

 Your cup runneth over again.

-|-----------3-----|-----------3-----|-----------3------|
-|-----3---3---3---|-----3---3---3---|-----3---3---3----|
-|---0---0-------0-|---0---0-------0-|---0---0-------0--|
-|-----------------|-----------------|------------------|
-|-----------------|-----------------|-3----------------|
-|-3---------------|-1---------------|------------------|

-|-----------------|-
-|-----3-----------|-
-|---0---0---0---0-|-
-|-----------------|-
-|-1-------1---2---|-
-|-----------------|-


Chorus 1:
    ^  ^  ^ / ^     ^  ^  ^ / ^     ^  ^  ^ / ^     ^  ^  ^ / ^
-|---------------|--3--3--3-3-3--|--3--3--3-3-3--|--3--3--3-3-3--|
-|---------------|--3--3--3-3-3--|--3--3--3-3-3--|--3--3--3-3-3--|
-|---------------|--0--0--0-0-0--|--0--0--0-0-0--|--0--0--0-0-0--|
-|--5--5--5-5-5--|--3--3--3-3-3--|--0--0--0-0-0--|--0--0--0-0-0--|  X 2
-|--5--5--5-5-5--|---------------|--3--3--3-3-3--|--1--1--1-1-1--|
-|--3--3--3-3-3--|---------------|---------------|---------------|
 
Don't scream about, don't think aloud.
Turn your head now baby just spit me out.
Don't worry 'bout, don't speak of doubt.
Turn your head now, baby just spit me out.

-|-3--3--3-5-3---|-1--1--1-3-1--|--0--0--0-0-0---|---------------|
-|-3--3--3-3-3---|-3--3--3-3-3--|--1--1--1-3-1---|-3--3-3-3-1----|
-|-------------0-|------------0-|-------------0--|-3--3-0-3---0--|
-|---------------|--------------|----------------|---------------| X 2
-|---------------|--------------|----------------|---------------|
-|---------------|--------------|----------------|---------------|


(Intro to Verse 2):

-|-----------3-----|-----------3-----|-----------3------|
-|-----3---3---3---|-----3---3---3---|-----3---3---3----|
-|---0---0-------0-|---0---0-------0-|---0---0-------0--|
-|-----------------|-----------------|------------------|
-|-----------------|-----------------|-3----------------|
-|-3---------------|-1---------------|------------------|

-|-----------------|-
-|-----3-----------|-
-|---0---0---0---0-|-
-|-----------------|-  X 2
-|-1-------1---2---|-
-|-----------------|-


Verse 2:

-|-----------3-----|-----------3-----|-----------3------|
-|-----3---3---3---|-----3---3---3---|-----3---3---3----|
-|---0---0-------0-|---0---0-------0-|---0---0-------0--|
-|-----------------|-----------------|------------------|
-|-----------------|-----------------|-3----------------|
-|-3---------------|-1---------------|------------------|

   Why follow me     to higher ground,   

-|-----------------|-
-|-----3-----------|-
-|---0---0---0---0-|-
-|-----------------|-
-|-1-------1---2---|-
-|-----------------|-

   Lost as you swear I am?

-|-----------3-----|-----------3-----|-----------3------|
-|-----3---3---3---|-----3---3---3---|-----3---3---3----|
-|---0---0-------0-|---0---0-------0-|---0---0-------0--|
-|-----------------|-----------------|------------------|
-|-----------------|-----------------|-3----------------|
-|-3---------------|-1---------------|------------------|

-|-----------------|-
-|-----3-----------|-
-|---0---0---0---0-|-
-|-----------------|-
-|-1-------1---2---|-
-|-----------------|-

-|-----------3-----|-----------3-----|-----------3------|
-|-----3---3---3---|-----3---3---3---|-----3---3---3----|
-|---0---0-------0-|---0---0-------0-|---0---0-------0--|
-|-----------------|-----------------|------------------|
-|-----------------|-----------------|-3----------------|
-|-3---------------|-1---------------|------------------|

   Don't throw away your basic needs,

-|-----------------|-
-|-----3-----------|-
-|---0---0---0---0-|-
-|-----------------|-
-|-1-------1---2---|-
-|-----------------|-

   Ambiance and vanity.

-|-----------3-----|-----------3-----|-----------3------|
-|-----3---3---3---|-----3---3---3---|-----3---3---3----|
-|---0---0-------0-|---0---0-------0-|---0---0-------0--|
-|-----------------|-----------------|------------------|
-|-----------------|-----------------|-3----------------|
-|-3---------------|-1---------------|------------------|

-|-----------------|-
-|-----3-----------|-
-|---0---0---0---0-|-
-|-----------------|-
-|-1-------1---2---|-
-|-----------------|-


(Repeat Chorus 1)
    ^  ^  ^ / ^     ^  ^  ^ / ^     ^  ^  ^ / ^     ^  ^  ^ / ^
-|---------------|--3--3--3-3-3--|--3--3--3-3-3--|--3--3--3-3-3--|
-|---------------|--3--3--3-3-3--|--3--3--3-3-3--|--3--3--3-3-3--|
-|---------------|--0--0--0-0-0--|--0--0--0-0-0--|--0--0--0-0-0--|
-|--5--5--5-5-5--|--3--3--3-3-3--|--0--0--0-0-0--|--0--0--0-0-0--|  X 4
-|--5--5--5-5-5--|---------------|--3--3--3-3-3--|--1--1--1-1-1--|
-|--3--3--3-3-3--|---------------|---------------|---------------|

Don't scream about, don't think aloud,
Turn your head now, baby just spit me out.
Don't worry 'bout it, don't speak of doubt,
Turn your head now, baby just spit me out. (Repeat)

-|-3--3--3-5-3---|-1--1--1-3-1--|--0--0--0-0-0---|---------------|
-|-3--3--3-3-3---|-3--3--3-3-3--|--1--1--1-3-1---|-3--3-3-3-1----|
-|-------------0-|------------0-|-------------0--|-3--3-0-3---0--|
-|---------------|--------------|----------------|---------------| X 2
-|---------------|--------------|----------------|---------------|
-|---------------|--------------|----------------|---------------|


Break:

-|-------------------|-------------------|-
-|-------------------|-------------------|-
-|--0-0-0-0-0-0-0-0--|--0-0-0-0-0-0-0-0--|-
-|--5-5-5-5-5-5-5-5--|--3-3-3-3-3-3-3-3--|-
-|-------------------|-------------------|-
-|-------------------|-------------------|-
                                               X 2
-|-------------------|-------------------|-
-|-------------------|-------------------|-
-|--0-0-0-0-0-0-0-0--|--3-3-3-3-3-3-3-0--|-
-|--2-2-2-2-2-2-2-2--|-------------------|-  
-|--3-3-3-3-3-3-3-3--|-------------------|-
-|-------------------|-------------------|-


Intro to Chorus 2:

-|-----------3-----|-----------3-----|-----------3------|
-|-----3---3---3---|-----3---3---3---|-----3---3---3----|
-|---0---0-------0-|---0---0-------0-|---0---0-------0--|
-|-----------------|-----------------|------------------|
-|-----------------|-----------------|-3----------------|
-|-3---------------|-1---------------|------------------|

-|-----------------|-
-|-----3-----------|-
-|---0---0---0---0-|-
-|-----------------|-  X 2
-|-1-------1---2---|-
-|-----------------|-


Chorus 2:
    ^  ^  ^ / ^     ^  ^  ^ / ^     ^  ^  ^ / ^     ^  ^  ^ / ^
-|---------------|--3--3--3-3-3--|--3--3--3-3-3--|--3--3--3-3-3--|
-|---------------|--3--3--3-3-3--|--3--3--3-3-3--|--3--3--3-3-3--|
-|---------------|--0--0--0-0-0--|--0--0--0-0-0--|--0--0--0-0-0--|
-|--5--5--5-5-5--|--3--3--3-3-3--|--0--0--0-0-0--|--0--0--0-0-0--|  X 2
-|--5--5--5-5-5--|---------------|--3--3--3-3-3--|--1--1--1-1-1--|
-|--3--3--3-3-3--|---------------|---------------|---------------|

    December promise you gave unto me, December whispers of treachery.
    December clouds are now covering me, December songs I no longer sing.

(Repeat Chorus 2)

-|-3--3--3-5-3---|-1--1--1-3-1--|--0--0--0-0-0---|---------------|
-|-3--3--3-3-3---|-3--3--3-3-3--|--1--1--1-3-1---|-3--3-3-3-1----|
-|-------------0-|------------0-|-------------0--|-3--3-0-3---0--|
-|---------------|--------------|----------------|---------------| X 2
-|---------------|--------------|----------------|---------------|
-|---------------|--------------|----------------|---------------|

  December promise you gave unto me, December whispers of treachery.
  December clouds are now covering me, December songs I no longer sing.

(Repeat Chorus 1)
    ^  ^  ^ / ^     ^  ^  ^ / ^     ^  ^  ^ / ^     ^  ^  ^ / ^
-|---------------|--3--3--3-3-3--|--3--3--3-3-3--|--3--3--3-3-3--|
-|---------------|--3--3--3-3-3--|--3--3--3-3-3--|--3--3--3-3-3--|
-|---------------|--0--0--0-0-0--|--0--0--0-0-0--|--0--0--0-0-0--|
-|--5--5--5-5-5--|--3--3--3-3-3--|--0--0--0-0-0--|--0--0--0-0-0--|  X 2
-|--5--5--5-5-5--|---------------|--3--3--3-3-3--|--1--1--1-1-1--|
-|--3--3--3-3-3--|---------------|---------------|---------------|

    Don't scream about, don't think aloud,
    Turn your head now, baby just spit me out.
    Don't worry 'bout it, don't speak of doubt,
    Turn your head now, baby just spit me out

(Repeat Chorus 1)

-|-3--3--3-5-3---|-1--1--1-3-1--|--0--0--0-0-0---|---------------|
-|-3--3--3-3-3---|-3--3--3-3-3--|--1--1--1-3-1---|-3--3-3-3-1----|
-|-------------0-|------------0-|-------------0--|-3--3-0-3---0--|
-|---------------|--------------|----------------|---------------|
-|---------------|--------------|----------------|---------------|
-|---------------|--------------|----------------|---------------|

   Don't scream about, don't think aloud, 
   Turn your head now, baby just spit me out.

    ^  ^  ^ / ^     ^  ^  ^ / ^     ^  ^  ^ / ^     ^  ^  ^ / ^
-|---------------|--3--3--3-3-3--|--3--3--3-3-3--|--3--3--3-3-3--|
-|---------------|--3--3--3-3-3--|--3--3--3-3-3--|--3--3--3-3-3--|
-|---------------|--0--0--0-0-0--|--0--0--0-0-0--|--0--0--0-0-0--|
-|--5--5--5-5-5--|--3--3--3-3-3--|--0--0--0-0-0--|--0--0--0-0-0--|
-|--5--5--5-5-5--|---------------|--3--3--3-3-3--|--1--1--1-1-1--|
-|--3--3--3-3-3--|---------------|---------------|---------------|

   Don't worry 'bout it, don't speak of doubt,
   Turn your head now, baby just spit me out


Outro:

-|-----------3-----|-----------3-----|-----------3-----|
-|-----3---3---3---|-----3---3---3---|-----3---3---3---|
-|---0---0-------0-|---0---0-------0-|---0---0-------0-|
-|-----------------|-----------------|-----------------|
-|-----------------|-----------------|-3---------------|
-|-3---------------|-1---------------|-----------------|

                      ^
-|-----------------|--3--|
-|-----3-----------|--3--|
-|---0---0---0---0-|--0--|
-|-----------------|--0--|
-|-1-------1---2---|--0--|
-|-----------------|--3--|
Tap to rate this tab
 
# A B C D E F G H I J K L M N O P Q R S T U V W X Y Z