Collective Soul - Him tab

b = bend
r = release


Riff 1

E|---------------------------------------------|
B|---------------------------------------------|
G|---------------------------------------------|
D|---------------3--------------3-------3------|
A|-----0----1---------0------------------------|
E|-------------------------1--------1----------|

Riff 2 - played by clean & distortion electric

*Not exactly 13 bend maybe 12 1/2 to 12 3/4, use your ears
E|----------------------------------------------------------------|
B|----------------------------------------------------------------|
G|--12b13r12--10-----12b13r12--10-----12b13r12--10----------10----|
D|------------------------------------------------------12--------|
A|----------------------------------------------------------------|
E|----------------------------------------------------------------|
Tap to rate this tab
 
# A B C D E F G H I J K L M N O P Q R S T U V W X Y Z