Song name
# A B C D E F G H I J K L M N O P Q R S T U V W X Y Z

Collective Soul - Wasting Time tab

-------------------------------------------------------------------------------
			     WASTING TIME - Collective Soul
-------------------------------------------------------------------------------
Tabbed by: El Baggio
Email: m.bartosik@yahoo.com

Tuning: STANDARD (eBGDAE)

1st solo
e|---------------------------------------------------------------------------|
B|-15b(17)----br15(17)15---12h13-12h15-------------12-15-15b(17)--br15(17)15-|
G|--------------------------------------12---12/14---------------------------|
D|---------------------------------------------------------------------------|
A|---------------------------------------------------------------------------|
E|---------------------------------------------------------------------------|

e|-----15-19-15----15--------------------15----19-15----15-------------------|
B|--17----------19----19-15-----15-------------------19----19-15----15-------|
G|---------------------------17----17\16-------------------------17----17\16-|
D|---------------------------------------------------------------------------|
A|---------------------------------------------------------------------------|
E|---------------------------------------------------------------------------|

e|------15------------------------------15-----------------------------------|
B|---------15-15-13-12h13-12h13-15---------15-15-13-12h13-12h13-15-hold------|
G|---------------------------------12----------------------------------------|
D|17-------------------------------------------------------------------------|
A|---------------------------------------------------------------------------|
E|---------------------------------------------------------------------------|


outro solo

e|---------------------------------------------------------------------------|
B|---------------------------------------------------------------------------|
G|-----------------------------------------4-5-7-5-4-5-----------------------|
D|-----5-5h7-5-----5-5h7-5-----5-7h9-7---5-----------------------------------|
A|-5-7---------5-7---------5-7-----------------------------------------------|
E|---------------------------------------------------------------------------|



************************************

| /   slide up
| \   slide down
| h   hammer-on
| p   pull-off
| ~   vibrato
| +   harmonic
| x   Mute note
| b   Bend
| pb  Pre-bend
| br  Bend release
| pbr Pre-bend release
| brb Bend release bend

************************************
Tap to rate this tab
 
# A B C D E F G H I J K L M N O P Q R S T U V W X Y Z