Song name
# A B C D E F G H I J K L M N O P Q R S T U V W X Y Z

Collective Soul - Heavy tab

Help us improve GuitareTab! Take a short survey!
Tuning: 1/2 Step Down


eb|-------------------------------------------------------------------------------------------------|
Bb|-------------------------------------------------------------------------------------------------|
Gb|-10-10-10-10-10-10-10-10-10-10-10-10-10-10-10-10-10-10-10-10-10-10-10-10-10-10-10-10-10-10-10-10-|
Db|-------------------------------------------------------------------------------------------------|
Ab|-------------------------------------------------------------------------------------------------|
Eb|-------------------------------------------------------------------------------------------------|


eb|--------|----------------------|-------------------|-------------------|
Bb|--------|---15b---15b-----15b--|---15b--15b---15b--|-------15---(15)---|
Gb|--19----|----------------------|-------------------|--14b--------------|
Db|--------|----------------------|-------------------|-------------------|
Ab|--------|----------------------|-------------------|-------------------|
Eb|--------|----------------------|-------------------|-------------------|


eb|--------------|--15b----17b-----19b--|--20b----22b---|
Bb|---x--14--12--|----------------------|---------------|
Gb|------14------|----------------------|---------------|
Db|--------------|----------------------|---------------|
Ab|--------------|----------------------|---------------|
Eb|--------------|----------------------|---------------|

Related for Heavy tab