Collective Soul - Giving tab

"Giving" by Collective Soul
From "Disciplined Breakdown" (1997)
Tabbed by Kevin Dorth

Tuning:  Standard
Capo:  1

Intro:
e|-3-------3-------3-------3-----------|
B|-2-------2-------2-------2-----------|
G|-3-------3-------3-------3-----------|
D|-0-------0-------0-------0-----------|
A|---4-2-0---4-2-0---4-2-0-------------|
E|-------------------------------------|

e|-3-------3-------3-------3-------3---|
B|-2-------2-------2-------2-------3-3-|
G|-3-------3-------3-------3-------0-2-|
D|-0-------0-------0-------0-------0-0-|
A|---4-2-0---4-2-0---4-2-0---4-2-0-2-X-|
E|---------------------------------3-2-|

(Repeat.)

e|-0-3-3-------------------------------|
B|-0-3-2-------------------------------|
G|-1-0-3-------------------------------|
D|-2-0-0-------------------------------|
A|-2-2---------------------------------|
E|-0-3---4-2-0-------------------------|

Bridge:
e|-3-0-3-3-3-3-0-3-3-3-----------------|
B|-3-2-2-3-2-3-2-2-3-2-----------------|
G|-0-2-3-2-3-0-2-3-3-3-----------------|
D|-0-2-0-0-0-0-2-0-0-0-----------------|
A|-2-0-------2-0-----------------------|
E|-3---------3-------------------------|

Outro:
e|-3-------3-------3-------3-----------|
B|-2-------2-------2-------2-----------|
G|-3-------3-------3-------3-----------|
D|-0-------0-------0-------0-----------|
A|---4-2-0---4-2-0---4-2-0-------------|
E|-------------------------------------|
Tap to rate this tab
 
# A B C D E F G H I J K L M N O P Q R S T U V W X Y Z