Song name
# A B C D E F G H I J K L M N O P Q R S T U V W X Y Z

Collective Soul - Needs tab

Artist: Collective Soul
Song: Needs
Tabbed by: Zuka (zuka4077@hotmail.com)

Note: Guitar 1- Acoustic    Also: Check the road map at the bottom
      Guitar 2- Electric
      Guitar 3- Acoustic
(So If you see a verse where G1 and G3 play, but not G2,
 this is why.)

Intro:

e|------3--------3--------3-------------|
B|--------3--------3--------3------3----|
G|----0--------0--------0--------0---0--|  X 4
D|--------------------------------------|
A|-----------3--------2-----------------|
E|--3--------------------------2--------|

Verse 1:

e|------3--------3--------3-------------|
B|--------3--------3--------3------3----|
G|----0--------0--------0--------0---0--|  X 4
D|--------------------------------------|
A|-----------3--------2-----------------|
E|--3--------------------------2--------|
(All around me...)

Chorus (Listen to the song for the rhythm)

e|----------------------------------->
B|----------------------------------->
G|----------------------------------->
D|----------------------------------->
A|--0-0-0-0-0-0-0-0-0-0-0-0-0-0-0-0-->
E|--3-3-3-3-3-3-3-3-3-3-3-3-3-3-3-3-->
 PM|-------------------------------|
     (I don't need nobody...)

e|----------------------------------->
B|----------------------------------->
G|----------------------------------->
D|----------------------------------->
A|--2-2-2-2-2-2-2-2-2-2-2-2-2-2-2-2-->
E|--0-0-0-0-0-0-0-0-0-0-0-0-0-0-0-0-->
 PM|-------------------------------|
     (I don't, need the weight...)

                       (1st time)         (2nd time)
e|------------------>----------------||-----------------|
B|------------------>----------------||-----------------|
G|------------------>----------------||-----------------|
D|------------------>----------------||-----------------|
A|--3-3-3-3-3-3-3-3->0-0-0-0-0-3-3-2-||-3-3-3-3-3-3-3-3-|
E|--0-0-0-0-0-0-0-0->0-0-0-0-0-0-0-0-||-0-0-0-0-0-0-0-0-|
 PM|--------------------------------| PM|--------------|
      (...of words, to find...)

Break:

Guitar 1 (Figure out strumming rhythm for chords):
e|--3----3----3----3-|
B|--3----3----3----3-|
G|--0----0----0----0-|
D|-------------------|
A|-------3----2------|
E|--3--------------2-|

Guitar 2 (Electric):
e|------------------------------|
B|--0-7~-0-7~--0-7--0-9-11-9-7~-|
G|------------------------------|
D|------------------------------|
A|------------------------------|
E|------------------------------|

Verse 2:

Guitar 1:
e|------3--------3--------3-------------|
B|--------3--------3--------3------3----|
G|----0--------0--------0--------0---0--|  X 4
D|--------------------------------------|
A|-----------3--------2-----------------|
E|--3--------------------------2--------|
  (Here I slumber, to awaken my daze)

Guitar 2 (Play only once, at the very end of Verse 2):
e|--------------------------------------|
B|----------------------0-7-0-9-11-9-7~-|
G|--------------------------------------|
D|--------------------------------------|
A|--------------------------------------|
E|--------------------------------------|

Guitar 3 (Figure out stumming rhythm):
e|--3----3----3----3-|
B|--3----3----3----3-|
G|--0----0----0----0-| X 4
D|-------------------|
A|-------3----2------|
E|--3--------------2-|

Verse 3:

Guitar 1 or 3:
e|--3----3----3----3-|
B|--3----3----3----3-|
G|--0----0----0----0-| X 8
D|-------------------|
A|-------3----2------|
E|--3--------------2-|

Guitar 2:
e|------------------------------------------------------->
B|--0-7----0-7-9--0-11-----0-7-9--0-11-7--0-7-9--0-11-7-->
G|------------------------------------------------------->
D|------------------------------------------------------->
A|------------------------------------------------------->
E|------------------------------------------------------->

e|------------------------||--------------|
B|--7-0-11---7-0-11-9-7-9-||--7--7--7-7-7-|
G|------------------------||--------------|
D|------------------------||--------------|
A|------------------------||--------------|
E|------------------------||--------------|
        (1st time)            (2nd time)

Interlude:

Guitar 1 or 3 (Figure out Strum rhythm):
e|--3-----3-|
B|--3-----3-|
G|--0-----0-|
D|--3-----0-|
A|--3-----3-|
E|--------3-|
   (In this time of substitute)

Guitar 2:
e|------3--------3----------3------3--------3---|
B|--------3--------3------3----------3--------3-|
G|----------------------------------------------|
D|----------------------------------------------|
A|-----------3-3------2-2------3-3--------------|
E|--3-3---------------------------------3-3-----|
(Start playing right after "Substitute" and stop at "All the while")
(Start playing right after "invest" and stop at "all the while)

**Go back to Intro Riff**
**Go back to Chorus**

**Instumental Solo (Violin, Cello etc.)**

Outro:

Guitar 1 (Again, listen for strumming rhythm:
e|--3---3---3-|
B|--3---3---3-|
G|--0---0---0-|
D|--0---0---0-|
A|--2---3---0-|
E|----------3-|
(You're All I need...)

Guitar 2 (This is the "Ooh Ooh Ooh" Part tabbed out):
e|-----------------| |----------------|
B|--11-9-7-9-7~----| |--11-12-11-9-7~-|
G|-----------------| |----------------|
D|-----------------| |----------------|
A|-----------------| |----------------|
E|-----------------| |----------------|
     (I'm sure you can figure Guitar 2 out)

Guitar 3 (Random arpeggios with these chords):
e|--3---3---3---3---|
B|--3---3---3---3---|
G|--0---0---0---0---|
D|--0---0---0---0---|
A|--0---3---2---0---|
E|--3-----------2---|
(Not necessarily in that order)

Road Map:
-Intro
-Verse 1
-Chorus
-Break
-Verse 2
-Verse 3
-Interlude
-Verse 1/Intro
-Chorus
-Instumental Solo
-Outro
Tap to rate this tab
# A B C D E F G H I J K L M N O P Q R S T U V W X Y Z