Collective Soul - Precious Declaration tab

-----------------------------------------------------------------------------
	      Precious Declaration - Collective Soul(GUITAR)
                       
-----------------------------------------------------------------------------
Tabbed by: Scotto10

Tuning: Down a half step

=============================================================================


Guitar 1



                      E  S  S S  S S E   S E  E  S S  
D#||-------|-------|---------------------------------|
A#||-------|-------|---------------------------------|
F#||-------|-------|---------------------------------|
C#||-------|-------|---------------------------------|
G#||-------|-------|----------5p-0-x-------------x-x-|
D#||-------|-------|--0--6h-7------0-3b--0-0--0--x-x-|


  E  S  S S  S S E   S E  E  S S    E  S  S S  S S E   S E  E  S S  
---------------------------------|---------------------------------|
---------------------------------|---------------------------------|
---------------------------------|---------------------------------|
---------------------------------|---------------------------------|
----------5p-0-x-------------x-x-|----------5p-0-x-------------x-x-|
--0--6h-7------0-3b--0-0--0--x-x-|--0--6h-7------0-3b--0-0--0--x-x-|


                                    PM PM PM PM PM PM PM PM  
  E  S  S S  S S E   S E  E  S S    E  E  E  E  E  E  E  E   
---------------------------------|--------------------------|
---------------------------------|--------------------------|
---------------------------------|--------------------------|
---------------------------------|--------------------------|
----------5p-0-x-------------x-x-|--5--5--5--5--5--5--5--5--|
--0--6h-7------0-3b--0-0--0--x-x-|--3--3--3--3--3--3--3--3--|


  PM PM PM PM PM PM PM PM                                    
  E  E  E  E  E  E  E  E     E  S  S S  S S E   S E  E  S S  
--------------------------|---------------------------------|
--------------------------|---------------------------------|
--------------------------|---------------------------------|
--------------------------|---------------------------------|
--5--5--5--5--5--5--5--5--|----------5p-0-x-------------x-x-|
--3--3--3--3--3--3--3--3--|--0--6h-7------0-3b--0-0--0--x-x-|


                                    PM PM PM PM PM PM PM PM  
  E  S  S S  S S E   S E  E  S S    E  E  E  E  E  E  E  E   
---------------------------------|--------------------------|
---------------------------------|--------------------------|
---------------------------------|--------------------------|
---------------------------------|--------------------------|
----------5p-0-x-------------x-x-|--5--5--5--5--5--5--5--5--|
--0--6h-7------0-3b--0-0--0--x-x-|--3--3--3--3--3--3--3--3--|


  PM PM PM PM PM PM PM PM                                    
  E  E  E  E  E  E  E  E     E  S  S S  S S E   S E  E  S S  
--------------------------|---------------------------------|
--------------------------|---------------------------------|
--------------------------|---------------------------------|
--------------------------|---------------------------------|
--5--5--5--5--5--5--5--5--|----------5p-0-x-------------x-x-|
--3--3--3--3--3--3--3--3--|--0--6h-7------0-3b--0-0--0--x-x-|


  E  S  S S  S S E   S E  E  S S    Q    Q    E  E  Q     
---------------------------------|-------3----L--3-------|
---------------------------------|-------3----L-----3----|
---------------------------------|--0--------------------|
---------------------------------|--0--------------------|
----------5p-0-x-------------x-x-|-----------------------|
--0--6h-7------0-3b--0-0--0--x-x-|--3--------------------|


  Q    Q    E  E  Q       Q    Q    E  E  Q       Q    Q    E  E  Q     
-------3----L--3-------|-------3----L--3-------|-------3----L--3-------|
-------3----L-----3----|-------3----L-----3----|-------3----L-----3----|
--0--------------------|--0--------------------|--0--------------------|
--0--------------------|-----------------------|-----------------------|
-----------------------|--3--------------------|--3--------------------|
--3--------------------|-----------------------|-----------------------|


  Q    Q    E  E  Q       Q    Q    E  E  Q       Q    Q    E  E  Q     
-------3----L--3-------|-------3----L--3-------|-------3----L--3-------|
-------3----L-----3----|-------3----L-----3----|-------3----L-----3----|
--0--------------------|--0--------------------|--0--------------------|
--0--------------------|--0--------------------|-----------------------|
-----------------------|-----------------------|--3--------------------|
--3--------------------|--3--------------------|-----------------------|


  Q    Q    E  E  Q       E  E  E  S E  S E  E  S S  
-------3----L--3-------|----------------------------|
-------3----L-----3----|----------------------------|
--0--------------------|----------------------------|
-----------------------|----------------------------|
--3--------------------|--5--5--5--5-5--5-5--5--5-5-|
-----------------------|--3--3--3--3-3--3-3--3--3-3-|


  E  E  E  S E  S E  E  S S    E  E  E  S E  S E  E  S S  
----------------------------|----------------------------|
----------------------------|----------------------------|
----------------------------|----------------------------|
----------------------------|--5--5--5--5-5--5-5--5--5-5-|
--5--5--5--5-5--5-5--5--5-5-|--3--3--3--3-3--3-3--3--3-3-|
--3--3--3--3-3--3-3--3--3-3-|----------------------------|


  E  E  E  S E  S E  E  S S    E  E  E  S E  S E  E  S S  
----------------------------|----------------------------|
----------------------------|----------------------------|
----------------------------|----------------------------|
--5--5--5--5-5--5-5--5--5-5-|----------------------------|
--3--3--3--3-3--3-3--3--3-3-|--5--5--5--5-5--5-5--5--5-5-|
----------------------------|--3--3--3--3-3--3-3--3--3-3-|


  E  E  E  S E  S E  E  S S    E  E  E  S E  S E  E  S S  
----------------------------|----------------------------|
----------------------------|----------------------------|
----------------------------|----------------------------|
----------------------------|--5--5--5--5-5--5-5--5--5-5-|
--5--5--5--5-5--5-5--5--5-5-|--3--3--3--3-3--3-3--3--3-3-|
--3--3--3--3-3--3-3--3--3-3-|----------------------------|


  E  E  E  S E  S E  E  E     E  S  S S  S S E   S E  E  S S  
---------------------------|---------------------------------|
---------------------------|---------------------------------|
---------------------------|---------------------------------|
--5--5--5--5-5--5-8--8--8--|---------------------------------|
--3--3--3--3-3--3-6--6--6--|----------5p-0-x-------------x-x-|
---------------------------|--0--6h-7------0-3b--0-0--0--x-x-|


  E  S  S S  S S E   S E  E  S S    E  S  S S  S S E   S E  E  S S  
---------------------------------|---------------------------------|
---------------------------------|---------------------------------|
---------------------------------|---------------------------------|
---------------------------------|---------------------------------|
----------5p-0-x-------------x-x-|----------5p-0-x-------------x-x-|
--0--6h-7------0-3b--0-0--0--x-x-|--0--6h-7------0-3b--0-0--0--x-x-|


                                    PM PM PM PM PM PM PM PM  
  E  S  S S  S S E   S E  E  S S    E  E  E  E  E  E  E  E   
---------------------------------|--------------------------|
---------------------------------|--------------------------|
---------------------------------|--------------------------|
---------------------------------|--------------------------|
----------5p-0-x-------------x-x-|--5--5--5--5--5--5--5--5--|
--0--6h-7------0-3b--0-0--0--x-x-|--3--3--3--3--3--3--3--3--|


  PM PM PM PM PM PM PM PM                                    
  E  E  E  E  E  E  E  E     E  S  S S  S S E   S E  E  S S  
--------------------------|---------------------------------|
--------------------------|---------------------------------|
--------------------------|---------------------------------|
--------------------------|---------------------------------|
--5--5--5--5--5--5--5--5--|----------5p-0-x-------------x-x-|
--3--3--3--3--3--3--3--3--|--0--6h-7------0-3b--0-0--0--x-x-|


                                    PM PM PM PM PM PM PM PM  
  E  S  S S  S S E   S E  E  S S    E  E  E  E  E  E  E  E   
---------------------------------|--------------------------|
---------------------------------|--------------------------|
---------------------------------|--------------------------|
---------------------------------|--------------------------|
----------5p-0-x-------------x-x-|--5--5--5--5--5--5--5--5--|
--0--6h-7------0-3b--0-0--0--x-x-|--3--3--3--3--3--3--3--3--|


  PM PM PM PM PM PM PM PM                                    
  E  E  E  E  E  E  E  E     E  S  S S  S S E   S E  E  S S  
--------------------------|---------------------------------|
--------------------------|---------------------------------|
--------------------------|---------------------------------|
--------------------------|---------------------------------|
--5--5--5--5--5--5--5--5--|----------5p-0-x-------------x-x-|
--3--3--3--3--3--3--3--3--|--0--6h-7------0-3b--0-0--0--x-x-|


  E  S  S S  S S E   S E  E  S S    Q    Q    E  E  Q     
---------------------------------|-------3----L--3-------|
---------------------------------|-------3----L-----3----|
---------------------------------|--0--------------------|
---------------------------------|--0--------------------|
----------5p-0-x-------------x-x-|-----------------------|
--0--6h-7------0-3b--0-0--0--x-x-|--3--------------------|


  Q    Q    E  E  Q       Q    Q    E  E  Q       Q    Q    E  E  Q     
-------3----L--3-------|-------3----L--3-------|-------3----L--3-------|
-------3----L-----3----|-------3----L-----3----|-------3----L-----3----|
--0--------------------|--0--------------------|--0--------------------|
--0--------------------|-----------------------|-----------------------|
-----------------------|--3--------------------|--3--------------------|
--3--------------------|-----------------------|-----------------------|


  Q    Q    E  E  Q       Q    Q    E  E  Q       Q    Q    E  E  Q     
-------3----L--3-------|-------3----L--3-------|-------3----L--3-------|
-------3----L-----3----|-------3----L-----3----|-------3----L-----3----|
--0--------------------|--0--------------------|--0--------------------|
--0--------------------|--0--------------------|-----------------------|
-----------------------|-----------------------|--3--------------------|
--3--------------------|--3--------------------|-----------------------|


  Q    Q    E  E  Q       E  E  E  S E  S E  E  S S  
-------3----L--3-------|----------------------------|
-------3----L-----3----|----------------------------|
--0--------------------|----------------------------|
-----------------------|----------------------------|
--3--------------------|--5--5--5--5-5--5-5--5--5-5-|
-----------------------|--3--3--3--3-3--3-3--3--3-3-|


  E  E  E  S E  S E  E  S S    E  E  E  S E  S E  E  S S  
----------------------------|----------------------------|
----------------------------|----------------------------|
----------------------------|----------------------------|
----------------------------|--5--5--5--5-5--5-5--5--5-5-|
--5--5--5--5-5--5-5--5--5-5-|--3--3--3--3-3--3-3--3--3-3-|
--3--3--3--3-3--3-3--3--3-3-|----------------------------|


  E  E  E  S E  S E  E  S S    E  E  E  S E  S E  E  S S  
----------------------------|----------------------------|
----------------------------|----------------------------|
----------------------------|----------------------------|
--5--5--5--5-5--5-5--5--5-5-|----------------------------|
--3--3--3--3-3--3-3--3--3-3-|--5--5--5--5-5--5-5--5--5-5-|
----------------------------|--3--3--3--3-3--3-3--3--3-3-|


  E  E  E  S E  S E  E  S S    E  E  E  S E  S E  E  S S  
----------------------------|----------------------------|
----------------------------|----------------------------|
----------------------------|----------------------------|
----------------------------|--5--5--5--5-5--5-5--5--5-5-|
--5--5--5--5-5--5-5--5--5-5-|--3--3--3--3-3--3-3--3--3-3-|
--3--3--3--3-3--3-3--3--3-3-|----------------------------|


  E  E  E  S E  S E  E  E     E  E  E  E  E  E  E  E   
---------------------------|--------------------------|
---------------------------|--------------------------|
---------------------------|--2--2--2--2--2--2--2--2--|
--5--5--5--5-5--5-8--8--8--|--2--2--2--2--2--2--2--2--|
--3--3--3--3-3--3-6--6--6--|--0--0--0--0--0--0--0--0--|
---------------------------|--------------------------|


  E  E  E  E  E  E  E  E     E  E  E  E  E  E  E  E   
--------------------------|--------------------------|
--------------------------|--------------------------|
--2--2--2--2--2--2--2--2--|--4--4--4--4--4--4--4--4--|
--2--2--2--2--2--2--2--2--|--4--4--4--4--4--4--4--4--|
--0--0--0--0--0--0--0--0--|--2--2--2--2--2--2--2--2--|
--------------------------|--------------------------|


  E  E  E  E  E  E  E  E     E  E  E  E  E  E  E  E   
--------------------------|--------------------------|
--------------------------|--------------------------|
--4--4--4--4--4--4--4--4--|--2--2--2--2--2--2--2--2--|
--4--4--4--4--4--4--4--4--|--2--2--2--2--2--2--2--2--|
--2--2--2--2--2--2--2--2--|--0--0--0--0--0--0--0--0--|
--------------------------|--------------------------|


  E  E  E  E  E  E  E  E     E  E  E  E  E  E  E  E   
--------------------------|--------------------------|
--------------------------|--------------------------|
--2--2--2--2--2--2--2--2--|--4--4--4--4--4--4--4--4--|
--2--2--2--2--2--2--2--2--|--4--4--4--4--4--4--4--4--|
--0--0--0--0--0--0--0--0--|--2--2--2--2--2--2--2--2--|
--------------------------|--------------------------|


  E  E  E  E  S S E  E  E     E  S  S S  S S E   S E  Q     
---------------------------|-------------------------------|
---------------------------|-------------------------------|
--4--4--4--4--4-x----------|-------------------------------|
--4--4--4--4--4-x-5--5--5--|-------------------------------|
--2--2--2--2--2-x-5--5--5--|----------5p-0-x---------------|
------------------3--3--3--|--0--6h-7------0-3b--0-0-------|


  E  S  S S  S S E   S E  Q       E  S  S S  S S E   S E  Q     
-------------------------------|-------------------------------|
-------------------------------|-------------------------------|
-------------------------------|-------------------------------|
-------------------------------|-------------------------------|
----------5p-0-x---------------|----------5p-0-x---------------|
--0--6h-7------0-3b--0-0-------|--0--6h-7------0-3b--0-0-------|


  E  S  S S  S S E   S E  Q       Q    Q    E  E  Q       Q    Q    E  E  Q     
-------------------------------|-------3----L--3-------|-------3----L--3-------|
-------------------------------|-------3----L-----3----|-------3----L-----3----|
-------------------------------|--0--------------------|--0--------------------|
-------------------------------|--0--------------------|--0--------------------|
----------5p-0-x---------------|-----------------------|-----------------------|
--0--6h-7------0-3b--0-0-------|--3--------------------|--3--------------------|


  Q    Q    E  E  Q       Q    Q    E  E  Q       Q    Q    E  E  Q     
-------3----L--3-------|-------3----L--3-------|-------3----L--3-------|
-------3----L-----3----|-------3----L-----3----|-------3----L-----3----|
--0--------------------|--0--------------------|--0--------------------|
-----------------------|-----------------------|--0--------------------|
--3--------------------|--3--------------------|-----------------------|
-----------------------|-----------------------|--3--------------------|


  Q    Q    E  E  Q       Q    Q    E  E  Q       Q    Q    E  E  Q     
-------3----L--3-------|-------3----L--3-------|-------3----L--3-------|
-------3----L-----3----|-------3----L-----3----|-------3----L-----3----|
--0--------------------|--0--------------------|--0--------------------|
--0--------------------|-----------------------|-----------------------|
-----------------------|--3--------------------|--3--------------------|
--3--------------------|-----------------------|-----------------------|


  E  E  E  S E  S E  E  S S    E  E  E  S E  S E  E  S S  
----------------------------|----------------------------|
----------------------------|----------------------------|
----------------------------|----------------------------|
----------------------------|----------------------------|
--5--5--5--5-5--5-5--5--5-5-|--5--5--5--5-5--5-5--5--5-5-|
--3--3--3--3-3--3-3--3--3-3-|--3--3--3--3-3--3-3--3--3-3-|


  E  E  E  S E  S E  E  S S    E  E  E  S E  S E  E  S S  
----------------------------|----------------------------|
----------------------------|----------------------------|
----------------------------|----------------------------|
--5--5--5--5-5--5-5--5--5-5-|--5--5--5--5-5--5-5--5--5-5-|
--3--3--3--3-3--3-3--3--3-3-|--3--3--3--3-3--3-3--3--3-3-|
----------------------------|----------------------------|


  E  E  E  S E  S E  E  S S    E  E  E  S E  S E  E  S S  
----------------------------|----------------------------|
----------------------------|----------------------------|
----------------------------|----------------------------|
----------------------------|----------------------------|
--5--5--5--5-5--5-5--5--5-5-|--5--5--5--5-5--5-5--5--5-5-|
--3--3--3--3-3--3-3--3--3-3-|--3--3--3--3-3--3-3--3--3-3-|


  E  E  E  S E  S E  E  S S    E  E  E  S E  S E  E  S S  
----------------------------|----------------------------|
----------------------------|----------------------------|
----------------------------|----------------------------|
--5--5--5--5-5--5-5--5--5-5-|--5--5--5--5-5--5-5--5--5-5-|
--3--3--3--3-3--3-3--3--3-3-|--3--3--3--3-3--3-3--3--3-3-|
----------------------------|----------------------------|


  E  E  E  S E  S E  E  S S    E  E  E  S E  S E  E  S S  
----------------------------|----------------------------|
----------------------------|----------------------------|
----------------------------|----------------------------|
----------------------------|----------------------------|
--5--5--5--5-5--5-5--5--5-5-|--5--5--5--5-5--5-5--5--5-5-|
--3--3--3--3-3--3-3--3--3-3-|--3--3--3--3-3--3-3--3--3-3-|


  E  E  E  S E  S E  E  S S    E  E  E  S E  S E  E  S S  
----------------------------|----------------------------|
----------------------------|----------------------------|
----------------------------|----------------------------|
--5--5--5--5-5--5-5--5--5-5-|--5--5--5--5-5--5-5--5--5-5-|
--3--3--3--3-3--3-3--3--3-3-|--3--3--3--3-3--3-3--3--3-3-|
----------------------------|----------------------------|


  E  E  E  S E  S E  E  S S    E  E  E  S E  S E  E  S S  
----------------------------|----------------------------|
----------------------------|----------------------------|
----------------------------|----------------------------|
----------------------------|----------------------------|
--5--5--5--5-5--5-5--5--5-5-|--5--5--5--5-5--5-5--5--5-5-|
--3--3--3--3-3--3-3--3--3-3-|--3--3--3--3-3--3-3--3--3-3-|


  E  E  E  S E  S E  E  S S    E  E  E  S E  S E  E  E   
----------------------------|---------------------------|
----------------------------|---------------------------|
----------------------------|---------------------------|
--5--5--5--5-5--5-5--5--5-5-|--5--5--5--5-5--5-8--8--8--|
--3--3--3--3-3--3-3--3--3-3-|--3--3--3--3-3--3-6--6--6--|
----------------------------|---------------------------|


  E  S  S S  S S E   S E  E  S S    E  S  S S  S S E   S E  E  S S  
---------------------------------|---------------------------------|
---------------------------------|---------------------------------|
---------------------------------|---------------------------------|
---------------------------------|---------------------------------|
----------5p-0-x-------------x-x-|----------5p-0-x-------------x-x-|
--0--6h-7------0-3b--0-0--0--x-x-|--0--6h-7------0-3b--0-0--0--x-x-|


  E  S  S S  S S E   S E  E  S S    E  S  S S  S S E   S E  E  E    
---------------------------------|--------------------------------||
---------------------------------|--------------------------------||
---------------------------------|--------------------------------||
---------------------------------|--------------------------------||
----------5p-0-x-------------x-x-|----------5p-0-x----------------||
--0--6h-7------0-3b--0-0--0--x-x-|--0--6h-7------0-3b--0-0--0-----||



==================================================================
==================================================================
==================================================================


Guitar 2



                                      E  S  S S  S S E   S E  E  S S  
D#||-------|-------|-------|-------|---------------------------------|
A#||-------|-------|-------|-------|---------------------------------|
F#||-------|-------|-------|-------|---------------------------------|
C#||-------|-------|-------|-------|---------------------------------|
G#||-------|-------|-------|-------|----------5p-0-x-------------x-x-|
D#||-------|-------|-------|-------|--0--6h-7------0-3b--0-0--0--x-x-|


                                    PM PM PM PM PM PM PM PM  
  E  S  S S  S S E   S E  E  S S    E  E  E  E  E  E  E  E   
---------------------------------|--------------------------|
---------------------------------|--------------------------|
---------------------------------|--------------------------|
---------------------------------|--------------------------|
----------5p-0-x-------------x-x-|--5--5--5--5--5--5--5--5--|
--0--6h-7------0-3b--0-0--0--x-x-|--3--3--3--3--3--3--3--3--|


  PM PM PM PM PM PM PM PM                                    
  E  E  E  E  E  E  E  E     E  S  S S  S S E   S E  E  S S  
--------------------------|---------------------------------|
--------------------------|---------------------------------|
--------------------------|---------------------------------|
--------------------------|---------------------------------|
--5--5--5--5--5--5--5--5--|----------5p-0-x-------------x-x-|
--3--3--3--3--3--3--3--3--|--0--6h-7------0-3b--0-0--0--x-x-|


                                    PM PM PM PM PM PM PM PM  
  E  S  S S  S S E   S E  E  S S    E  E  E  E  E  E  E  E   
---------------------------------|--------------------------|
---------------------------------|--------------------------|
---------------------------------|--------------------------|
---------------------------------|--------------------------|
----------5p-0-x-------------x-x-|--5--5--5--5--5--5--5--5--|
--0--6h-7------0-3b--0-0--0--x-x-|--3--3--3--3--3--3--3--3--|


  PM PM PM PM PM PM PM PM                                    
  E  E  E  E  E  E  E  E     E  S  S S  S S E   S E  E  S S  
--------------------------|---------------------------------|
--------------------------|---------------------------------|
--------------------------|---------------------------------|
--------------------------|---------------------------------|
--5--5--5--5--5--5--5--5--|----------5p-0-x-------------x-x-|
--3--3--3--3--3--3--3--3--|--0--6h-7------0-3b--0-0--0--x-x-|


  E  S  S S  S S E   S E  E  S S     H         E    E  E    E   
---------------------------------|-----------------------------|
---------------------------------|--12--------12s--10--8s--13--|
---------------------------------|-----------------------------|
---------------------------------|---9---------9s---7--5s--10--|
----------5p-0-x-------------x-x-|-----------------------------|
--0--6h-7------0-3b--0-0--0--x-x-|-----------------------------|


   H         E    E  E    E      Q.      S   S   E    E  E    E   
-----------------------------|-----------------------------------|
--12--------12s--10--8s--13--|--12------12s-13s-12s--10--8s--13--|
-----------------------------|-----------------------------------|
---9---------9s---7--5s--10--|---9-------9s-10s--9s---7--5s--10--|
-----------------------------|-----------------------------------|
-----------------------------|-----------------------------------|


   E    E   E    E   E    E  Q        H         E    E  E    E   
----------------------------------|-----------------------------|
--17s--15--15s--17--12s--10--8----|--12--------12s--10--8s--13--|
----------------------------------|-----------------------------|
--14s--12--12s--14---9s---7--5----|---9---------9s---7--5s--10--|
----------------------------------|-----------------------------|
----------------------------------|-----------------------------|


   H         E    E  E    E      Q.      S   S   E    E  E    E   
-----------------------------|-----------------------------------|
--12--------12s--10--8s--13--|--12------12s-13s-12s--10--8s--13--|
-----------------------------|-----------------------------------|
---9---------9s---7--5s--10--|---9-------9s-10s--9s---7--5s--10--|
-----------------------------|-----------------------------------|
-----------------------------|-----------------------------------|


   E    E   E    E   E    E  Q     
----------------------------------|
--17s--15--15s--17--12s--10--8----|
----------------------------------|
--14s--12--12s--14---9s---7--5----|
----------------------------------|
----------------------------------|


   S   S  S  S   S  S  S   S  S  S   S  S  S   S  S   S  
--------------------------------------------------------|
------------13p-12-12-----------13p-12-12--------13p-12-|
--14p-12-12-----------14p-12-12-----------14p-12--------|
--------------------------------------------------------|
--------------------------------------------------------|
--------------------------------------------------------|


   S   S  S  S   S  S  S   S  S  S   S  S  S   S  S   S  
--------------------------------------------------------|
------------13p-12-12-----------13p-12-12--------13p-12-|
--14p-12-12-----------14p-12-12-----------14p-12--------|
--------------------------------------------------------|
--------------------------------------------------------|
--------------------------------------------------------|


   S   S  S  S   S  S  S   S  S  S   S  S  S   S  S   S  
--------------------------------------------------------|
------------13p-12-12-----------13p-12-12--------13p-12-|
--14p-12-12-----------14p-12-12-----------14p-12--------|
--------------------------------------------------------|
--------------------------------------------------------|
--------------------------------------------------------|


   S   S  S  S   S  S  S   S  S  S   S  S  S   S  S   S  
--------------------------------------------------------|
------------13p-12-12-----------13p-12-12--------13p-12-|
--14p-12-12-----------14p-12-12-----------14p-12--------|
--------------------------------------------------------|
--------------------------------------------------------|
--------------------------------------------------------|


   S   S  S  S   S  S  S   S  S  S   S  S  S   S  S   S  
--------------------------------------------------------|
------------13p-12-12-----------13p-12-12--------13p-12-|
--14p-12-12-----------14p-12-12-----------14p-12--------|
--------------------------------------------------------|
--------------------------------------------------------|
--------------------------------------------------------|


   S   S  S  S   S  S  S   S  S  S   S  S  S   S  S   S  
--------------------------------------------------------|
------------13p-12-12-----------13p-12-12--------13p-12-|
--14p-12-12-----------14p-12-12-----------14p-12--------|
--------------------------------------------------------|
--------------------------------------------------------|
--------------------------------------------------------|


   S   S  S  S   S  S  S   S  S  S   S  S  S   S  S   S  
--------------------------------------------------------|
------------13p-12-12-----------13p-12-12--------13p-12-|
--14p-12-12-----------14p-12-12-----------14p-12--------|
--------------------------------------------------------|
--------------------------------------------------------|
--------------------------------------------------------|


   S   S  S  S   S  S  S   S  S  S  E   E   E   
-----------------------------------------------|
------------13p-12-12-----------13-------------|
--14p-12-12-----------14p-12-12----15--15--15--|
-----------------------------------------------|
-----------------------------------------------|
-----------------------------------------------|


  E  S  S S  S S E   S E  E  S S    E  S  S S  S S E   S E  E  S S  
---------------------------------|---------------------------------|
---------------------------------|---------------------------------|
---------------------------------|---------------------------------|
---------------------------------|---------------------------------|
----------5p-0-x-------------x-x-|----------5p-0-x-------------x-x-|
--0--6h-7------0-3b--0-0--0--x-x-|--0--6h-7------0-3b--0-0--0--x-x-|


  E  S  S S  S S E   S E  E  S S    E  S  S S  S S E   S E  E  S S  
---------------------------------|---------------------------------|
---------------------------------|---------------------------------|
---------------------------------|---------------------------------|
---------------------------------|---------------------------------|
----------5p-0-x-------------x-x-|----------5p-0-x-------------x-x-|
--0--6h-7------0-3b--0-0--0--x-x-|--0--6h-7------0-3b--0-0--0--x-x-|


  PM PM PM PM PM PM PM PM    PM PM PM PM PM PM PM PM  
  E  E  E  E  E  E  E  E     E  E  E  E  E  E  E  E   
--------------------------|--------------------------|
--------------------------|--------------------------|
--------------------------|--------------------------|
--------------------------|--------------------------|
--5--5--5--5--5--5--5--5--|--5--5--5--5--5--5--5--5--|
--3--3--3--3--3--3--3--3--|--3--3--3--3--3--3--3--3--|


  E  S  S S  S S E   S E  E  S S    E  S  S S  S S E   S E  E  S S  
---------------------------------|---------------------------------|
---------------------------------|---------------------------------|
---------------------------------|---------------------------------|
---------------------------------|---------------------------------|
----------5p-0-x-------------x-x-|----------5p-0-x-------------x-x-|
--0--6h-7------0-3b--0-0--0--x-x-|--0--6h-7------0-3b--0-0--0--x-x-|


  PM PM PM PM PM PM PM PM    PM PM PM PM PM PM PM PM  
  E  E  E  E  E  E  E  E     E  E  E  E  E  E  E  E   
--------------------------|--------------------------|
--------------------------|--------------------------|
--------------------------|--------------------------|
--------------------------|--------------------------|
--5--5--5--5--5--5--5--5--|--5--5--5--5--5--5--5--5--|
--3--3--3--3--3--3--3--3--|--3--3--3--3--3--3--3--3--|


  E  S  S S  S S E   S E  E  S S    E  S  S S  S S E   S E  E  S S  
---------------------------------|---------------------------------|
---------------------------------|---------------------------------|
---------------------------------|---------------------------------|
---------------------------------|---------------------------------|
----------5p-0-x-------------x-x-|----------5p-0-x-------------x-x-|
--0--6h-7------0-3b--0-0--0--x-x-|--0--6h-7------0-3b--0-0--0--x-x-|


   H         E    E  E    E      H         E    E  E    E   
-----------------------------|-----------------------------|
--12--------12s--10--8s--13--|--12--------12s--10--8s--13--|
-----------------------------|-----------------------------|
---9---------9s---7--5s--10--|---9---------9s---7--5s--10--|
-----------------------------|-----------------------------|
-----------------------------|-----------------------------|


   Q.      S   S   E    E  E    E      E    E   E    E   E    E  Q     
-----------------------------------|----------------------------------|
--12------12s-13s-12s--10--8s--13--|--17s--15--15s--17--12s--10--8----|
-----------------------------------|----------------------------------|
---9-------9s-10s--9s---7--5s--10--|--14s--12--12s--14---9s---7--5----|
-----------------------------------|----------------------------------|
-----------------------------------|----------------------------------|


   H         E    E  E    E      H         E    E  E    E   
-----------------------------|-----------------------------|
--12--------12s--10--8s--13--|--12--------12s--10--8s--13--|
-----------------------------|-----------------------------|
---9---------9s---7--5s--10--|---9---------9s---7--5s--10--|
-----------------------------|-----------------------------|
-----------------------------|-----------------------------|


   Q.      S   S   E    E  E    E      E    E   E    E   E    E  Q     
-----------------------------------|----------------------------------|
--12------12s-13s-12s--10--8s--13--|--17s--15--15s--17--12s--10--8----|
-----------------------------------|----------------------------------|
---9-------9s-10s--9s---7--5s--10--|--14s--12--12s--14---9s---7--5----|
-----------------------------------|----------------------------------|
-----------------------------------|----------------------------------|


   S   S  S  S   S  S  S   S  S  S   S  S  S   S  S   S  
--------------------------------------------------------|
------------13p-12-12-----------13p-12-12--------13p-12-|
--14p-12-12-----------14p-12-12-----------14p-12--------|
--------------------------------------------------------|
--------------------------------------------------------|
--------------------------------------------------------|


   S   S  S  S   S  S  S   S  S  S   S  S  S   S  S   S  
--------------------------------------------------------|
------------13p-12-12-----------13p-12-12--------13p-12-|
--14p-12-12-----------14p-12-12-----------14p-12--------|
--------------------------------------------------------|
--------------------------------------------------------|
--------------------------------------------------------|


   S   S  S  S   S  S  S   S  S  S   S  S  S   S  S   S  
--------------------------------------------------------|
------------13p-12-12-----------13p-12-12--------13p-12-|
--14p-12-12-----------14p-12-12-----------14p-12--------|
--------------------------------------------------------|
--------------------------------------------------------|
--------------------------------------------------------|


   S   S  S  S   S  S  S   S  S  S   S  S  S   S  S   S  
--------------------------------------------------------|
------------13p-12-12-----------13p-12-12--------13p-12-|
--14p-12-12-----------14p-12-12-----------14p-12--------|
--------------------------------------------------------|
--------------------------------------------------------|
--------------------------------------------------------|


   S   S  S  S   S  S  S   S  S  S   S  S  S   S  S   S  
--------------------------------------------------------|
------------13p-12-12-----------13p-12-12--------13p-12-|
--14p-12-12-----------14p-12-12-----------14p-12--------|
--------------------------------------------------------|
--------------------------------------------------------|
--------------------------------------------------------|


   S   S  S  S   S  S  S   S  S  S   S  S  S   S  S   S  
--------------------------------------------------------|
------------13p-12-12-----------13p-12-12--------13p-12-|
--14p-12-12-----------14p-12-12-----------14p-12--------|
--------------------------------------------------------|
--------------------------------------------------------|
--------------------------------------------------------|


   S   S  S  S   S  S  S   S  S  S   S  S  S   S  S   S  
--------------------------------------------------------|
------------13p-12-12-----------13p-12-12--------13p-12-|
--14p-12-12-----------14p-12-12-----------14p-12--------|
--------------------------------------------------------|
--------------------------------------------------------|
--------------------------------------------------------|


   S   S  S  S   S  S  S   S  S  S  E   E   E     E  E  E  E  E  E  E  E   
-----------------------------------------------|--------------------------|
------------13p-12-12-----------13-------------|--------------------------|
--14p-12-12-----------14p-12-12----15--15--15--|--2--2--2--2--2--2--2--2--|
-----------------------------------------------|--2--2--2--2--2--2--2--2--|
-----------------------------------------------|--0--0--0--0--0--0--0--0--|
-----------------------------------------------|--------------------------|


  E  E  E  E  E  E  E  E     E  E  E  E  E  E  E  E   
--------------------------|--------------------------|
--------------------------|--------------------------|
--2--2--2--2--2--2--2--2--|--4--4--4--4--4--4--4--4--|
--2--2--2--2--2--2--2--2--|--4--4--4--4--4--4--4--4--|
--0--0--0--0--0--0--0--0--|--2--2--2--2--2--2--2--2--|
--------------------------|--------------------------|


  E  E  E  E  E  E  E  E     E  E  E  E  E  E  E  E   
--------------------------|--------------------------|
--------------------------|--------------------------|
--4--4--4--4--4--4--4--4--|--2--2--2--2--2--2--2--2--|
--4--4--4--4--4--4--4--4--|--2--2--2--2--2--2--2--2--|
--2--2--2--2--2--2--2--2--|--0--0--0--0--0--0--0--0--|
--------------------------|--------------------------|


  E  E  E  E  E  E  E  E     E  E  E  E  E  E  E  E   
--------------------------|--------------------------|
--------------------------|--------------------------|
--2--2--2--2--2--2--2--2--|--4--4--4--4--4--4--4--4--|
--2--2--2--2--2--2--2--2--|--4--4--4--4--4--4--4--4--|
--0--0--0--0--0--0--0--0--|--2--2--2--2--2--2--2--2--|
--------------------------|--------------------------|


  E  E  E  E  S S E  E  E     E  S  S S  S S E   S E  Q     
---------------------------|-------------------------------|
---------------------------|-------------------------------|
--4--4--4--4--4-x----------|-------------------------------|
--4--4--4--4--4-x-5--5--5--|-------------------------------|
--2--2--2--2--2-x-5--5--5--|----------5p-0-x---------------|
------------------3--3--3--|--0--6h-7------0-3b--0-0-------|


  E  S  S S  S S E   S E  Q       E  S  S S  S S E   S E  Q     
-------------------------------|-------------------------------|
-------------------------------|-------------------------------|
-------------------------------|-------------------------------|
-------------------------------|-------------------------------|
----------5p-0-x---------------|----------5p-0-x---------------|
--0--6h-7------0-3b--0-0-------|--0--6h-7------0-3b--0-0-------|


  E  S  S S  S S E   S E  Q        H         E    E  E    E   
-------------------------------|-----------------------------|
-------------------------------|--12--------12s--10--8s--13--|
-------------------------------|-----------------------------|
-------------------------------|---9---------9s---7--5s--10--|
----------5p-0-x---------------|-----------------------------|
--0--6h-7------0-3b--0-0-------|-----------------------------|


   H         E    E  E    E      Q.      S   S   E    E  E    E   
-----------------------------|-----------------------------------|
--12--------12s--10--8s--13--|--12------12s-13s-12s--10--8s--13--|
-----------------------------|-----------------------------------|
---9---------9s---7--5s--10--|---9-------9s-10s--9s---7--5s--10--|
-----------------------------|-----------------------------------|
-----------------------------|-----------------------------------|


   E    E   E    E   E    E  Q        H         E    E  E    E   
----------------------------------|-----------------------------|
--17s--15--15s--17--12s--10--8----|--12--------12s--10--8s--13--|
----------------------------------|-----------------------------|
--14s--12--12s--14---9s---7--5----|---9---------9s---7--5s--10--|
----------------------------------|-----------------------------|
----------------------------------|-----------------------------|


   H         E    E  E    E      Q.      S   S   E    E  E    E   
-----------------------------|-----------------------------------|
--12--------12s--10--8s--13--|--12------12s-13s-12s--10--8s--13--|
-----------------------------|-----------------------------------|
---9---------9s---7--5s--10--|---9-------9s-10s--9s---7--5s--10--|
-----------------------------|-----------------------------------|
-----------------------------|-----------------------------------|


   E    E   E    E   E    E  Q     
----------------------------------|
--17s--15--15s--17--12s--10--8----|
----------------------------------|
--14s--12--12s--14---9s---7--5----|
----------------------------------|
----------------------------------|


   S   S  S  S   S  S  S   S  S  S   S  S  S   S  S   S  
--------------------------------------------------------|
------------13p-12-12-----------13p-12-12--------13p-12-|
--14p-12-12-----------14p-12-12-----------14p-12--------|
--------------------------------------------------------|
--------------------------------------------------------|
--------------------------------------------------------|


   S   S  S  S   S  S  S   S  S  S   S  S  S   S  S   S  
--------------------------------------------------------|
------------13p-12-12-----------13p-12-12--------13p-12-|
--14p-12-12-----------14p-12-12-----------14p-12--------|
--------------------------------------------------------|
--------------------------------------------------------|
--------------------------------------------------------|


   S   S  S  S   S  S  S   S  S  S   S  S  S   S  S   S  
--------------------------------------------------------|
------------13p-12-12-----------13p-12-12--------13p-12-|
--14p-12-12-----------14p-12-12-----------14p-12--------|
--------------------------------------------------------|
--------------------------------------------------------|
--------------------------------------------------------|


   S   S  S  S   S  S  S   S  S  S   S  S  S   S  S   S  
--------------------------------------------------------|
------------13p-12-12-----------13p-12-12--------13p-12-|
--14p-12-12-----------14p-12-12-----------14p-12--------|
--------------------------------------------------------|
--------------------------------------------------------|
--------------------------------------------------------|


   S   S  S  S   S  S  S   S  S  S   S  S  S   S  S   S  
--------------------------------------------------------|
------------13p-12-12-----------13p-12-12--------13p-12-|
--14p-12-12-----------14p-12-12-----------14p-12--------|
--------------------------------------------------------|
--------------------------------------------------------|
--------------------------------------------------------|


   S   S  S  S   S  S  S   S  S  S   S  S  S   S  S   S  
--------------------------------------------------------|
------------13p-12-12-----------13p-12-12--------13p-12-|
--14p-12-12-----------14p-12-12-----------14p-12--------|
--------------------------------------------------------|
--------------------------------------------------------|
--------------------------------------------------------|


   S   S  S  S   S  S  S   S  S  S   S  S  S   S  S   S  
--------------------------------------------------------|
------------13p-12-12-----------13p-12-12--------13p-12-|
--14p-12-12-----------14p-12-12-----------14p-12--------|
--------------------------------------------------------|
--------------------------------------------------------|
--------------------------------------------------------|


   S   S  S  S   S  S  S   S  S  S   S  S  S   S  S   S  
--------------------------------------------------------|
------------13p-12-12-----------13p-12-12--------13p-12-|
--14p-12-12-----------14p-12-12-----------14p-12--------|
--------------------------------------------------------|
--------------------------------------------------------|
--------------------------------------------------------|


   S   S  S  S   S  S  S   S  S  S   S  S  S   S  S   S  
--------------------------------------------------------|
------------13p-12-12-----------13p-12-12--------13p-12-|
--14p-12-12-----------14p-12-12-----------14p-12--------|
--------------------------------------------------------|
--------------------------------------------------------|
--------------------------------------------------------|


   S   S  S  S   S  S  S   S  S  S   S  S  S   S  S   S  
--------------------------------------------------------|
------------13p-12-12-----------13p-12-12--------13p-12-|
--14p-12-12-----------14p-12-12-----------14p-12--------|
--------------------------------------------------------|
--------------------------------------------------------|
--------------------------------------------------------|


   S   S  S  S   S  S  S   S  S  S   S  S  S   S  S   S  
--------------------------------------------------------|
------------13p-12-12-----------13p-12-12--------13p-12-|
--14p-12-12-----------14p-12-12-----------14p-12--------|
--------------------------------------------------------|
--------------------------------------------------------|
--------------------------------------------------------|


   S   S  S  S   S  S  S   S  S  S   S  S  S   S  S   S  
--------------------------------------------------------|
------------13p-12-12-----------13p-12-12--------13p-12-|
--14p-12-12-----------14p-12-12-----------14p-12--------|
--------------------------------------------------------|
--------------------------------------------------------|
--------------------------------------------------------|


   S   S  S  S   S  S  S   S  S  S   S  S  S   S  S   S  
--------------------------------------------------------|
------------13p-12-12-----------13p-12-12--------13p-12-|
--14p-12-12-----------14p-12-12-----------14p-12--------|
--------------------------------------------------------|
--------------------------------------------------------|
--------------------------------------------------------|


   S   S  S  S   S  S  S   S  S  S   S  S  S   S  S   S  
--------------------------------------------------------|
------------13p-12-12-----------13p-12-12--------13p-12-|
--14p-12-12-----------14p-12-12-----------14p-12--------|
--------------------------------------------------------|
--------------------------------------------------------|
--------------------------------------------------------|


   S   S  S  S   S  S  S   S  S  S   S  S  S   S  S   S  
--------------------------------------------------------|
------------13p-12-12-----------13p-12-12--------13p-12-|
--14p-12-12-----------14p-12-12-----------14p-12--------|
--------------------------------------------------------|
--------------------------------------------------------|
--------------------------------------------------------|


   S   S  S  S   S  S  S   S  S  S  E   E   E   
-----------------------------------------------|
------------13p-12-12-----------13-------------|
--14p-12-12-----------14p-12-12----15--15--15--|
-----------------------------------------------|
-----------------------------------------------|
-----------------------------------------------|


  E  S  S S  S S E   S E  E  S S    E  S  S S  S S E   S E  E  S S  
---------------------------------|---------------------------------|
---------------------------------|---------------------------------|
---------------------------------|---------------------------------|
---------------------------------|---------------------------------|
----------5p-0-x-------------x-x-|----------5p-0-x-------------x-x-|
--0--6h-7------0-3b--0-0--0--x-x-|--0--6h-7------0-3b--0-0--0--x-x-|


  E  S  S S  S S E   S E  E  S S    E  S  S S  S S E   S E  E  E    
---------------------------------|--------------------------------||
---------------------------------|--------------------------------||
---------------------------------|--------------------------------||
---------------------------------|--------------------------------||
----------5p-0-x-------------x-x-|----------5p-0-x----------------||
--0--6h-7------0-3b--0-0--0--x-x-|--0--6h-7------0-3b--0-0--0-----||




==================================================================
==================================================================
==================================================================


                             

Guitar 3 - harmony parts and interlude "solo"



D#||-------|-------|-------|-------|-------|-------|-------|-------|-------|
A#||-------|-------|-------|-------|-------|-------|-------|-------|-------|
F#||-------|-------|-------|-------|-------|-------|-------|-------|-------|
C#||-------|-------|-------|-------|-------|-------|-------|-------|-------|
G#||-------|-------|-------|-------|-------|-------|-------|-------|-------|
D#||-------|-------|-------|-------|-------|-------|-------|-------|-------|


                                           H         E    E  E    E   
-------|-------|-------|-------|-------|-----------------------------|
-------|-------|-------|-------|-------|-----------------------------|
-------|-------|-------|-------|-------|--12--------12s--11--9s--14--|
-------|-------|-------|-------|-------|-----------------------------|
-------|-------|-------|-------|-------|-----------------------------|
-------|-------|-------|-------|-------|-----------------------------|


   H         E    E  E    E      Q.      S   S   E    E  E    E   
-----------------------------|-----------------------------------|
-----------------------------|-----------------------------------|
--12--------12s--11--9s--14--|--12------12s-14s-12s--11--7s--14--|
-----------------------------|-----------------------------------|
-----------------------------|-----------------------------------|
-----------------------------|-----------------------------------|


   E    E   E    E   E    E  Q        H         E    E  E    E   
----------------------------------|-----------------------------|
----------------------------------|-----------------------------|
--17s--16--16s--17--12s--11--9----|--12--------12s--11--9s--14--|
----------------------------------|-----------------------------|
----------------------------------|-----------------------------|
----------------------------------|-----------------------------|


   H         E    E  E    E      Q.      S   S   E    E  E    E   
-----------------------------|-----------------------------------|
-----------------------------|-----------------------------------|
--12--------12s--11--9s--14--|--12------12s-14s-12s--11--7s--14--|
-----------------------------|-----------------------------------|
-----------------------------|-----------------------------------|
-----------------------------|-----------------------------------|


   E    E   E    E   E    E  Q                                           
----------------------------------|-----|-------|-------|-------|-------|
----------------------------------|-----|-------|-------|-------|-------|
--17s--16--16s--17--12s--11--9----|-----|-------|-------|-------|-------|
----------------------------------|-----|-------|-------|-------|-------|
----------------------------------|-----|-------|-------|-------|-------|
----------------------------------|-----|-------|-------|-------|-------|


-------|-------|-------|-------|-------|-------|-------|-------|-------|-------|
-------|-------|-------|-------|-------|-------|-------|-------|-------|-------|
-------|-------|-------|-------|-------|-------|-------|-------|-------|-------|
-------|-------|-------|-------|-------|-------|-------|-------|-------|-------|
-------|-------|-------|-------|-------|-------|-------|-------|-------|-------|
-------|-------|-------|-------|-------|-------|-------|-------|-------|-------|


                                           H         E    E  E    E   
-------|-------|-------|-------|-------|-----------------------------|
-------|-------|-------|-------|-------|-----------------------------|
-------|-------|-------|-------|-------|--12--------12s--11--9s--14--|
-------|-------|-------|-------|-------|-----------------------------|
-------|-------|-------|-------|-------|-----------------------------|
-------|-------|-------|-------|-------|-----------------------------|


   H         E    E  E    E      Q.      S   S   E    E  E    E   
-----------------------------|-----------------------------------|
-----------------------------|-----------------------------------|
--12--------12s--11--9s--14--|--12------12s-14s-12s--11--7s--14--|
-----------------------------|-----------------------------------|
-----------------------------|-----------------------------------|
-----------------------------|-----------------------------------|


   E    E   E    E   E    E  Q        H         E    E  E    E   
----------------------------------|-----------------------------|
----------------------------------|-----------------------------|
--17s--16--16s--17--12s--11--9----|--12--------12s--11--9s--14--|
----------------------------------|-----------------------------|
----------------------------------|-----------------------------|
----------------------------------|-----------------------------|


   H         E    E  E    E      Q.      S   S   E    E  E    E   
-----------------------------|-----------------------------------|
-----------------------------|-----------------------------------|
--12--------12s--11--9s--14--|--12------12s-14s-12s--11--7s--14--|
-----------------------------|-----------------------------------|
-----------------------------|-----------------------------------|
-----------------------------|-----------------------------------|


   E    E   E    E   E    E  Q                                             
----------------------------------|-------|-------|-------|-------|-------|
----------------------------------|-------|-------|-------|-------|-------|
--17s--16--16s--17--12s--11--9----|-------|-------|-------|-------|-------|
----------------------------------|-------|-------|-------|-------|-------|
----------------------------------|-------|-------|-------|-------|-------|
----------------------------------|-------|-------|-------|-------|-------|


-------|-------|-------|-------|-------|-------|-------|-------|-------|-------|
-------|-------|-------|-------|-------|-------|-------|-------|-------|-------|
-------|-------|-------|-------|-------|-------|-------|-------|-------|-------|
-------|-------|-------|-------|-------|-------|-------|-------|-------|-------|
-------|-------|-------|-------|-------|-------|-------|-------|-------|-------|
-------|-------|-------|-------|-------|-------|-------|-------|-------|-------|


                                          H.           Q     
-------|-------|-------|-------|-------|--------------------|
-------|-------|-------|-------|-------|--------------------|
-------|-------|-------|-------|-------|--7------------7----|
-------|-------|-------|-------|-------|--------------------|
-------|-------|-------|-------|-------|--------------------|
-------|-------|-------|-------|-------|--------------------|


  Q    Q     Q    Q       H.           Q       E   E  H.            
-----------------------|--------------------|---------3------------|
------------/5----7----|--5-----------------|----------------------|
--7----7---------------|---------------4----|--2p--0---------------|
-----------------------|--------------------|----------------------|
-----------------------|--------------------|----------------------|
-----------------------|--------------------|----------------------|


   H         E    E   E    E      H          Q     E  E   
------------------------------|--------------------------|
------------------------------|--------------------------|
--12---------Ls--11--12s--11--|--12--------/14----16-----|
------------------------------|--------------------------|
------------------------------|--------------------------|
------------------------------|--------------------------|


   H         H             E    E   E   E   E    E   Q                     
----------------------|-----------------------------------|-------|-------|
----------------------|--/17s--15--15--17-----------------|-------|-------|
--16------------------|--------------------16s--14--12----|-------|-------|
------------17--------|-----------------------------------|-------|-------|
----------------------|-----------------------------------|-------|-------|
----------------------|-----------------------------------|-------|-------|







Duration Legend
---------------
W - whole
H - half
Q - quarter
E - 8th
S - 16th
T - 32nd
X - 64th
. - note dotted
|-n-|  - n-tuplets


Tablature Legend
----------------
L - tied note
x - dead note
g - grace note
(n) - ghost note
> - accentuded note
NH - natural harmonic
AH - artificial harmonic
TH - tapped harmonic
SH - semi harmonic
PH - pitch harmonic
h - hammer on
p - pull off
b - bend
br - bendRelease
pb - preBend
pbr - preBendRelease
brb - bendReleaseBend
\n/ - tremolo bar dip
\n - tremolo bar dive
-/n - tremolo bar Release up
/n\ - tremolo bar inverted dip
/n - tremolo bar return
-\n - tremolo bar Release down
S - shift slide
s - legato slide
/ -  slide into from below or out of upwards
\ -  slide into from above or out of downwards
~ - vibrato
W - wide vibrato
tr - trill
TP - tremolo picking
T - tapping
S - slap
P - pop
< - fade in
^ - brush up
v - brush down


Tap to rate this tab
 
# A B C D E F G H I J K L M N O P Q R S T U V W X Y Z