Song name
# A B C D E F G H I J K L M N O P Q R S T U V W X Y Z

Collective Soul - Georgia Girl tab

-----------------------------------------------------------------------------
	           
                    Collective Soul - Georgia Girl (GUITAR)
                       
-----------------------------------------------------------------------------
Tabbed by: Scotto10

Tuning: Half Step Down

=============================================================================

Guitar 1



      E  E  S  S S S  S S E  Q         E   E   S   S  S  S   S  S  E   Q      
D#||-------------------------------|-----------------------------------------|
A#||-------------------------------|-----------------------------------------|
F#||--------7p-6---7p-6-6----6~----|----------12p-11----12p-11-11-----11~----|
C#||-------------------------------|------------------------------12---------|
G#||-------------------------------|-----------------------------------------|
D#||--5--5-------5--------5--------|--10--10---------10----------------------|


  E  E  S  S S S  S S E  Q         E   E   S   S  S  S   S  S  E   Q      
-------------------------------|-----------------------------------------|
-------------------------------|-----------------------------------------|
--------7p-6---7p-6-6----6~----|----------12p-11----12p-11-11-----11~----|
-------------------------------|------------------------------12---------|
-------------------------------|-----------------------------------------|
--5--5-------5--------5--------|--10--10---------10----------------------|


  E  E  S  S S S  S S E  Q         E   E   S   S  S  S   S  S  E   E    E    
-------------------------------|--------------------------------------------|
-------------------------------|--------------------------------------------|
--------7p-6---7p-6-6----6~----|----------12p-11----12p-11-11-----11~---L\--|
-------------------------------|------------------------------12------------|
-------------------------------|--------------------------------------------|
--5--5-------5--------5--------|--10--10---------10-------------------------|


  E  E  S  S S S  S S E  E   E       E   E   S   S  S  S   S  S  E   E    E    
---------------------------------|--------------------------------------------|
---------------------------------|--------------------------------------------|
--------7p-6---7p-6-6----6~--L/--|----------12p-11----12p-11-11-----11~---L\--|
---------------------------------|------------------------------12------------|
---------------------------------|--------------------------------------------|
--5--5-------5--------5----------|--10--10---------10-------------------------|


  E  E  E.  S S S S S E  E      E  E  E.  S S S S S E  E   
-----------------------------|----------------------------|
--------2---2-L-2-L-2-2------|--------7---7-L-7-L-7-7-----|
--------2---2-L-2-L-2-2------|--------7---7-L-7-L-7-7-----|
-----------------------------|----------------------------|
--0--0-------------------0s--|--5--5----------------------|
-----------------------------|-------------------------0--|


  E  E  E.  S S S S S E  E      E  E  E.  S S S S S E  E   
-----------------------------|----------------------------|
--------2---2-L-2-L-2-2------|--------7---7-L-7-L-7-7-----|
--------2---2-L-2-L-2-2------|--------7---7-L-7-L-7-7-----|
-----------------------------|----------------------------|
--0--0-------------------0s--|--5--5----------------------|
-----------------------------|-------------------------0--|


  E  E  E.  S S S S S E  E      E  E  E.  S S S S S E  E   
-----------------------------|----------------------------|
--------2---2-L-2-L-2-2------|--------7---7-L-7-L-7-7-----|
--------2---2-L-2-L-2-2------|--------7---7-L-7-L-7-7-----|
-----------------------------|----------------------------|
--0--0-------------------0s--|--5--5----------------------|
-----------------------------|-------------------------0--|


  E  E  E.  S S S S S E  E      E  E  E.  S S S S S E  E   
-----------------------------|----------------------------|
--------2---2-L-2-L-2-2------|--------7---7-L-7-L-7-7-----|
--------2---2-L-2-L-2-2------|--------7---7-L-7-L-7-7-----|
-----------------------------|----------------------------|
--0--0-------------------0s--|--5--5----------------------|
-----------------------------|-------------------------0--|


  E  E  S  S S S  S S E  Q         E   E   S   S  S  S   S  S  E   Q      
-------------------------------|-----------------------------------------|
-------------------------------|-----------------------------------------|
--------7p-6---7p-6-6----6~----|----------12p-11----12p-11-11-----11~----|
-------------------------------|------------------------------12---------|
-------------------------------|-----------------------------------------|
--5--5-------5--------5--------|--10--10---------10----------------------|


  E  E  S  S S S  S S E  Q         E   E   S   S  S  S   S  S  E   Q      
-------------------------------|-----------------------------------------|
-------------------------------|-----------------------------------------|
--------7p-6---7p-6-6----6~----|----------12p-11----12p-11-11-----11~----|
-------------------------------|------------------------------12---------|
-------------------------------|-----------------------------------------|
--5--5-------5--------5--------|--10--10---------10----------------------|


  E  E  E.  S S S S S E  E      E  E  E.  S S S S S E  E   
-----------------------------|----------------------------|
--------2---2-L-2-L-2-2------|--------7---7-L-7-L-7-7-----|
--------2---2-L-2-L-2-2------|--------7---7-L-7-L-7-7-----|
-----------------------------|----------------------------|
--0--0-------------------0s--|--5--5----------------------|
-----------------------------|-------------------------0--|


  E  E  E.  S S S S S E  E      E  E  E.  S S S S S E  E   
-----------------------------|----------------------------|
--------2---2-L-2-L-2-2------|--------7---7-L-7-L-7-7-----|
--------2---2-L-2-L-2-2------|--------7---7-L-7-L-7-7-----|
-----------------------------|----------------------------|
--0--0-------------------0s--|--5--5----------------------|
-----------------------------|-------------------------0--|


  E  E  E.  S S S S S E  E      E  E  E.  S S S S S E  E   
-----------------------------|----------------------------|
--------2---2-L-2-L-2-2------|--------7---7-L-7-L-7-7-----|
--------2---2-L-2-L-2-2------|--------7---7-L-7-L-7-7-----|
-----------------------------|----------------------------|
--0--0-------------------0s--|--5--5----------------------|
-----------------------------|-------------------------0--|


  E  E  E.  S S S S S E  E      E  E  E.  S S S S S E  E   
-----------------------------|----------------------------|
--------2---2-L-2-L-2-2------|--------7---7-L-7-L-7-7-----|
--------2---2-L-2-L-2-2------|--------7---7-L-7-L-7-7-----|
-----------------------------|----------------------------|
--0--0-------------------0s--|--5--5----------------------|
-----------------------------|-------------------------0--|


  E  E  E.  S S S S S E  E     E  E  E.  S S S S S E  E   
------------2---2---2-2--2--|--------2---2---2---2-2--2--|
--------2---2-L-2-L-2-2--2--|--------3---3-L-3-L-3-3--3--|
--2--2--2---2-L-2-L-2-2--2--|--2--2--2---2-L-2-L-2-2--2--|
--4--4--4---4---4---4-4--4--|--0--0----------------------|
--4--4----------------------|----------------------------|
--2--2----------------------|----------------------------|


  E  E  E.  S S S S S E  E     E  E  H.            
------------2---2---2-2--2--|--------2------------|
--------2---2-L-2-L-2-2--2--|--------3------------|
--2--2--2---2-L-2-L-2-2--2--|--2--2--2------------|
--4--4--4---4---4---4-4--4--|--0--0--0------------|
--4--4----------------------|---------------------|
--2--2----------------------|---------------------|


  E  E  S  S S S  S S E  Q         E   E   S   S  S  S   S  S  E   Q      
-------------------------------|-----------------------------------------|
-------------------------------|-----------------------------------------|
--------7p-6---7p-6-6----6~----|----------12p-11----12p-11-11-----11~----|
-------------------------------|------------------------------12---------|
-------------------------------|-----------------------------------------|
--5--5-------5--------5--------|--10--10---------10----------------------|


  E  E  S  S S S  S S E  Q         E   E   S   S  S  S   S  S  E   Q      
-------------------------------|-----------------------------------------|
-------------------------------|-----------------------------------------|
--------7p-6---7p-6-6----6~----|----------12p-11----12p-11-11-----11~----|
-------------------------------|------------------------------12---------|
-------------------------------|-----------------------------------------|
--5--5-------5--------5--------|--10--10---------10----------------------|


  W                   W                   W                   W                 
-------------------|--2----------------|-------------------|--2----------------|
-------------------|--3----------------|-------------------|--3----------------|
--2----------------|--2----------------|--2----------------|--2----------------|
--2----------------|--0----------------|--2----------------|--0----------------|
--0----------------|-------------------|--0----------------|-------------------|
-------------------|-------------------|-------------------|-------------------|


  W                   W                   W                   W                 
-------------------|--2----------------|-------------------|--2----------------|
-------------------|--3----------------|-------------------|--3----------------|
--2----------------|--2----------------|--2----------------|--2----------------|
--2----------------|--0----------------|--2----------------|--0----------------|
--0----------------|-------------------|--0----------------|-------------------|
-------------------|-------------------|-------------------|-------------------|


  W                   W                   W                   W                 
-------------------|--2----------------|-------------------|--2----------------|
-------------------|--3----------------|-------------------|--3----------------|
--2----------------|--2----------------|--2----------------|--2----------------|
--4----------------|--0----------------|--4----------------|--0----------------|
--4----------------|-------------------|--4----------------|-------------------|
--2----------------|-------------------|--2----------------|-------------------|


  E  E  E  S S S S E  E  E     E  E  E  S S S S E  E  E   
--0--L--0----0-0-0-0--0-----|--2--L--2----2-2-2-2--2-----|
--2--L--2----2-2-2-2--2-----|--3--3--3--3-3-3-3-3--3--3--|
--2--2--2--2-2-2-2-2--2--2--|--2--2--2--2-2-2-2-2--2--2--|
--2--2--2--2-2-2-2-2--2--2--|--0--0--0--0-0-0-0-0--0--0--|
--0--0--0--0-0-0-0-0--0--0--|----------------------------|
----------------------------|----------------------------|


  E  E  E  S S S S E  E  E     E  E  E  S S S S E  E  E   
--0--L--0----0-0-0-0--0-----|--2--L--2----2-2-2-2--2-----|
--2--L--2----2-2-2-2--2-----|--3--3--3--3-3-3-3-3--3--3--|
--2--2--2--2-2-2-2-2--2--2--|--2--2--2--2-2-2-2-2--2--2--|
--2--2--2--2-2-2-2-2--2--2--|--0--0--0--0-0-0-0-0--0--0--|
--0--0--0--0-0-0-0-0--0--0--|----------------------------|
----------------------------|----------------------------|


  E  E  E  S S S S E  E  E     E  E  E  S S S S E  E  E   
--0--L--0----0-0-0-0--0-----|--2--L--2----2-2-2-2--2-----|
--2--L--2----2-2-2-2--2-----|--3--3--3--3-3-3-3-3--3--3--|
--2--2--2--2-2-2-2-2--2--2--|--2--2--2--2-2-2-2-2--2--2--|
--2--2--2--2-2-2-2-2--2--2--|--0--0--0--0-0-0-0-0--0--0--|
--0--0--0--0-0-0-0-0--0--0--|----------------------------|
----------------------------|----------------------------|


  E  E  E  S S S S E  E  E     E  E  E  S S S S E  E  E   
--0--L--0----0-0-0-0--0-----|--2--L--2----2-2-2-2--2-----|
--2--L--2----2-2-2-2--2-----|--3--3--3--3-3-3-3-3--3--3--|
--2--2--2--2-2-2-2-2--2--2--|--2--2--2--2-2-2-2-2--2--2--|
--2--2--2--2-2-2-2-2--2--2--|--0--0--0--0-0-0-0-0--0--0--|
--0--0--0--0-0-0-0-0--0--0--|----------------------------|
----------------------------|----------------------------|


  E  E  E  S S S S E  E  E     E  E  E  S S S S E  E  E   
--0--L--0----0-0-0-0--0-----|--2--L--2----2-2-2-2--2-----|
--2--L--2----2-2-2-2--2-----|--3--3--3--3-3-3-3-3--3--3--|
--2--2--2--2-2-2-2-2--2--2--|--2--2--2--2-2-2-2-2--2--2--|
--2--2--2--2-2-2-2-2--2--2--|--0--0--0--0-0-0-0-0--0--0--|
--0--0--0--0-0-0-0-0--0--0--|----------------------------|
----------------------------|----------------------------|


  E  E  E  S S S S E  E  E     E  E  E  S S S S E  E  E   
--0--L--0----0-0-0-0--0-----|--2--L--2----2-2-2-2--2-----|
--2--L--2----2-2-2-2--2-----|--3--3--3--3-3-3-3-3--3--3--|
--2--2--2--2-2-2-2-2--2--2--|--2--2--2--2-2-2-2-2--2--2--|
--2--2--2--2-2-2-2-2--2--2--|--0--0--0--0-0-0-0-0--0--0--|
--0--0--0--0-0-0-0-0--0--0--|----------------------------|
----------------------------|----------------------------|


  E  E  E  S S S S E  E  E     E  E  E  S S S S E  E  E   
--2--L--2--L-2-2-2-2--2-----|--2--L--2----2-2-2-2--2-----|
--2--L--2--L-2-2-2-2--2-----|--3--3--3--3-3-3-3-3--3--3--|
--2--L--2--L-2-2-2-2--2-----|--2--2--2--2-2-2-2-2--2--2--|
--4--4--4--4-4-4-4-4--4--4--|--0--0--0--0-0-0-0-0--0--0--|
--4--4--4--4-4-4-4-4--4--4--|----------------------------|
--2--2--2--2-2-2-2-2--2--2--|----------------------------|


  E  E  E  S S S S E  E  E     E  E  H.            
--2--L--2--L-2-2-2-2--2-----|--2--L--2------------|
--2--L--2--L-2-2-2-2--2-----|--3--3--3------------|
--2--L--2--L-2-2-2-2--2-----|--2--2--2------------|
--4--4--4--4-4-4-4-4--4--4--|--0--0--0------------|
--4--4--4--4-4-4-4-4--4--4--|---------------------|
--2--2--2--2-2-2-2-2--2--2--|---------------------|


  E  E  S  S S S  S S E  Q         E   E   S   S  S  S   S  S  E   Q      
-------------------------------|-----------------------------------------|
-------------------------------|-----------------------------------------|
--------7p-6---7p-6-6----6~----|----------12p-11----12p-11-11-----11~----|
-------------------------------|------------------------------12---------|
-------------------------------|-----------------------------------------|
--5--5-------5--------5--------|--10--10---------10----------------------|


  E  E  S  S S S  S S E  Q         E   E   S   S  S  S   S  S  E   Q      
-------------------------------|-----------------------------------------|
-------------------------------|-----------------------------------------|
--------7p-6---7p-6-6----6~----|----------12p-11----12p-11-11-----11~----|
-------------------------------|------------------------------12---------|
-------------------------------|-----------------------------------------|
--5--5-------5--------5--------|--10--10---------10----------------------|


  E  E  S S S S S Q      E.      W                  
--------5-----5--------------|--------------------||
-----------------------------|--------------------||
----------7-7---7-7s----11---|---L----------------||
-----------------------------|--------------------||
-----------------------------|--------------------||
--5--5------------Ls----10---|---L----------------||




==============================================================
==============================================================



Guitar 2



D#||-------|-------|-------|-------|
A#||-------|-------|-------|-------|
F#||-------|-------|-------|-------|
C#||-------|-------|-------|-------|
G#||-------|-------|-------|-------|
D#||-------|-------|-------|-------|


        Piano arr for guitar                    
  E  E  S                    S S S S E.   Q     
-----------------------------------------17----|
-----------------------------------------------|
--------7--------------------6---7-6-----14----|
-------------------------------7-----7---------|
-----------------------------------------------|
-----------------------------------------------|


  E  E   S   S  S  S   S  E.   Q       Q    S S S S S E.   Q     
------------------------------22----|---------------------17----|
------------------------------------|---------------------------|
--------12p-11----12p-11------19----|-------7-6---7-6-----14----|
---------------12--------12---------|-----------7-----7---------|
------------------------------------|---------------------------|
------------------------------------|---------------------------|


  E  E   S   S  S  S   S  E.   Q                                             
------------------------------22----|-------|-------|-------|-------|-------|
------------------------------------|-------|-------|-------|-------|-------|
--------12p-11----12p-11------19----|-------|-------|-------|-------|-------|
---------------12--------12---------|-------|-------|-------|-------|-------|
------------------------------------|-------|-------|-------|-------|-------|
------------------------------------|-------|-------|-------|-------|-------|


                Piano arr for guitar                    
          E  E  S                    S S S S E.   Q     
-------|-----------------------------------------17----|
-------|-----------------------------------------------|
-------|--------7--------------------6---7-6-----14----|
-------|-------------------------------7-----7---------|
-------|-----------------------------------------------|
-------|-----------------------------------------------|


  E  E   S   S  S  S   S  E.   Q       E  E  S S S S S E.   Q     
------------------------------22----|----------------------17----|
------------------------------------|----------------------------|
--------12p-11----12p-11------19----|--------7-6---7-6-----14----|
---------------12--------12---------|------------7-----7---------|
------------------------------------|----------------------------|
------------------------------------|----------------------------|


  E  E   S   S  S  S   S  E.   Q                                             
------------------------------22----|-------|-------|-------|-------|-------|
------------------------------------|-------|-------|-------|-------|-------|
--------12p-11----12p-11------19----|-------|-------|-------|-------|-------|
---------------12--------12---------|-------|-------|-------|-------|-------|
------------------------------------|-------|-------|-------|-------|-------|
------------------------------------|-------|-------|-------|-------|-------|


-------|-------|-------|-------|-------|-------|-------|-------|-------|
-------|-------|-------|-------|-------|-------|-------|-------|-------|
-------|-------|-------|-------|-------|-------|-------|-------|-------|
-------|-------|-------|-------|-------|-------|-------|-------|-------|
-------|-------|-------|-------|-------|-------|-------|-------|-------|
-------|-------|-------|-------|-------|-------|-------|-------|-------|


        Piano arr for guitar                    
  E  E  S                    S S S S E.   Q     
-----------------------------------------17----|
-----------------------------------------------|
--------7--------------------6---7-6-----14----|
-------------------------------7-----7---------|
-----------------------------------------------|
-----------------------------------------------|


  E  E   S   S  S  S   S  E.   Q       E  E  S S S S S E.   Q     
------------------------------22----|----------------------17----|
------------------------------------|----------------------------|
--------12p-11----12p-11------19----|--------7-6---7-6-----14----|
---------------12--------12---------|------------7-----7---------|
------------------------------------|----------------------------|
------------------------------------|----------------------------|


  E  E   S   S  S  S   S  E.   Q                                             
------------------------------22----|-------|-------|-------|-------|-------|
------------------------------------|-------|-------|-------|-------|-------|
--------12p-11----12p-11------19----|-------|-------|-------|-------|-------|
---------------12--------12---------|-------|-------|-------|-------|-------|
------------------------------------|-------|-------|-------|-------|-------|
------------------------------------|-------|-------|-------|-------|-------|


                  H.           Q         Q.      H         E   
-------|-------|---------------------|------------------------|
-------|-------|---------------------|------------------------|
-------|-------|---------------7s----|--13--------------------|
-------|-------|---------------------|----------14---------L--|
-------|-------|---------------------|------------------------|
-------|-------|---------------------|------------------------|


  E  Q     Q     E    Q        Q.      H         E     E  E   H        Q     
---------------------------|----------12---------L--|-----------------------|
----------------12s--10----|------------------------|-----------------------|
--7--9----14---------------|--13--------------------|--7--9--14-------------|
---------------------------|------------------------|-----------------------|
---------------------------|------------------------|-----------------------|
---------------------------|------------------------|-----------------------|


   E      H         E   S  S  S  S      E   E   S  S  H        E   
------------------------------------|-----------------------------|
--15pbr--14---------L-----14--------|-----------------------------|
-----------------------16----16-14s-|--18---L--16-14-16-----------|
------------------------------------|--------------------------7--|
------------------------------------|-----------------------------|
------------------------------------|-----------------------------|


  E.    S S S Q.      S   S   E      Q      S   S  S E   Q.     S  
----------------------------------|-------------------------------|
--9br---7--------------------10~--|--7~--------------7~--7------L-|
----------9-7-6~------7s-(9)------|--------(9)p-7s-9--------------|
----------------------------------|-------------------------------|
----------------------------------|-------------------------------|
----------------------------------|-------------------------------|


   E   E   E   S  S  S  S  E   E    E     
--12--12--12--12-12-12-12-12--12--(12)S--|
---x---x---x---x--x--x--x--x---x----x----|
---9---9---9---9--9--9--9--9---9---(9)S--|
-----------------------------------------|
-----------------------------------------|
-----------------------------------------|


   E   E   E   S  S  S  S  E   E   E   
--10--10--10--14-14-14-14-14--14--14--|
---x---x---x---x--x--x--x--x---x---x--|
---7---7---7--11-11-11-11-11--11--11--|
--------------------------------------|
--------------------------------------|
--------------------------------------|


   E   E   E   S  S  S  S  E   E   S   S     E   E   E   E.   E   S  E   E   
--12--12--12--12-12-12-12-12--12---------|--17------17--------------17------|
---x---x---x---x--x--x--x--x---x--12S-15-|------15------15---14--15-----15--|
---9---9---9---9--9--9--9--9---9---------|----------------------------------|
-----------------------------------------|----------------------------------|
-----------------------------------------|----------------------------------|
-----------------------------------------|----------------------------------|


   E      H         E   S  S  S  S      E   E   S  S  H         E   
------------------------------------|------------------------------|
--15pbr--14---------L-----14--------|------------------------------|
-----------------------16----16-14s-|--18---L--16-14-16---------L--|
------------------------------------|------------------------------|
------------------------------------|------------------------------|
------------------------------------|------------------------------|


   E      H         E   S  S  S  S      E   E   S  S  E   E   Q.      
------------------------------------|--------------------------------|
--15pbr--14---------L-----14--------|--------------------------------|
-----------------------16----16-14s-|--18---L--16-14-16---L--14------|
------------------------------------|--------------------------------|
------------------------------------|--------------------------------|
------------------------------------|--------------------------------|


   W                    E  E  E   Q     E    Q        Q.      H         E   
--------------------|-----------------------------|----------12---------L--|
--------------------|------------------12s--10----|------------------------|
--11----------------|---L--7--9--14---------------|--13--------------------|
--------------------|-----------------------------|------------------------|
--------------------|-----------------------------|------------------------|
--------------------|-----------------------------|------------------------|


  E  E   H         Q        W                                           
------------------------|--------------------|----|----|----|----|----||
------------------------|--------------------|----|----|----|----|----||
--7--9--14---------L----|--14----------------|----|----|----|----|----||
------------------------|--------------------|----|----|----|----|----||
------------------------|--------------------|----|----|----|----|----||
------------------------|--------------------|----|----|----|----|----||




Duration Legend
---------------
W - whole
H - half
Q - quarter
E - 8th
S - 16th
T - 32nd
X - 64th
. - note dotted
|-n-|  - n-tuplets


Tablature Legend
----------------
L - tied note
x - dead note
g - grace note
(n) - ghost note
> - accentuded note
NH - natural harmonic
AH - artificial harmonic
TH - tapped harmonic
SH - semi harmonic
PH - pitch harmonic
h - hammer on
p - pull off
b - bend
br - bendRelease
pb - preBend
pbr - preBendRelease
brb - bendReleaseBend
\n/ - tremolo bar dip
\n - tremolo bar dive
-/n - tremolo bar Release up
/n\ - tremolo bar inverted dip
/n - tremolo bar return
-\n - tremolo bar Release down
S - shift slide
s - legato slide
/ -  slide into from below or out of upwards
\ -  slide into from above or out of downwards
~ - vibrato
W - wide vibrato
tr - trill
TP - tremolo picking
T - tapping
S - slap
P - pop
< - fade in
^ - brush up
v - brush down
Tap to rate this tab
# A B C D E F G H I J K L M N O P Q R S T U V W X Y Z