Song name
# A B C D E F G H I J K L M N O P Q R S T U V W X Y Z

Collective Soul - Good Morning After All tab

-----------------------------------------------------------------------------
	           
                    Collective Soul - Good Morning After All (GUITAR)
                       
-----------------------------------------------------------------------------
Tabbed by: Scotto10

Tuning: Half Step Down

=============================================================================


Guitar 1



      E  E  E  E  E  E  E  E     E  E  E  E  E  E  E  E   
D#||--2--2--2--2--2--2--2-----|--2--2--2-----2-----2-----|
A#||--3--3--3--3--3--3--3-----|--3--3--3--2--3--2--3-----|
F#||--2--2--2--2--2--2--2--0--|--4--4--4--2--4--2--4--0--|
C#||--0--0--0--0--0--0--0--0--|--4--4--4--2--4--2--4--0--|
G#||-----------------------0--|--2--2--2--2--2--2--2-----|
D#||--------------------------|--------------------------|


  E  E  E  E  E  E  E  E     E  E  E  E  E  E  E  E   
--3--3--3--3--3--3--3--3--|--2--2--2--2--2--2--2--2--|
--3--3--3--3--3--3--3--3--|--3--3--3--3--3--3--3--3--|
--0--0--0--0--0--0--0--0--|--2--2--2--2--2--2--2--2--|
--0--0--0--0--0--0--0--0--|--0--0--0--0--0--0--0--0--|
--2--2--2--2--2--2--2--2--|--------------------------|
--3--3--3--3--3--3--3--3--|--------------------------|


  E  E  E  E  E  E  E  E     E  E  E  E  E  E  E  E   
--2--2--2--2--2--2--2-----|--2--2--2-----2-----2-----|
--3--3--3--3--3--3--3-----|--3--3--3--2--3--2--3-----|
--2--2--2--2--2--2--2--0--|--4--4--4--2--4--2--4--0--|
--0--0--0--0--0--0--0--0--|--4--4--4--2--4--2--4--0--|
-----------------------0--|--2--2--2--2--2--2--2-----|
--------------------------|--------------------------|


  E  E  E  E  E  E  E  E     E  E  E  E  E  E  E  E   
--3--3--3--3--3--3--3--3--|--------2-----------2-----|
--3--3--3--3--3--3--3--3--|--3--3--3--3--3--3--3--3--|
--0--0--0--0--0--0--0--0--|--2--2--2--2--2--2--2--2--|
--0--0--0--0--0--0--0--0--|--0--0--0--0--0--0--0--0--|
--2--2--2--2--2--2--2--2--|--------------------------|
--3--3--3--3--3--3--3--3--|--------------------------|


  E  E  E  E  E  E  E  E     E  E  E  E  E  E  E  E   
--------3-----------3-----|--------3-----------3-----|
--3--3--3--3--3--3--3--3--|--3--3--3--3--3--3--3--3--|
--0--0--0--0--0--0--0--0--|--0--0--0--0--0--0--0--2--|
--2--2--2--2--2--2--2--0--|--0--0--0--0--0--0--0--0--|
--3--3--3--3--3--3--3--2--|--2--2--2--2--2--2--2-----|
--------------------------|--------------------------|


  E  E  E  E  E  E  E  E     E  E  E  E  E  E  E  E   
--------2-----------2-----|--------2-----------2-----|
--3--3--3--3--3--3--3--3--|--3--3--3--3--3--3--3--3--|
--2--2--2--2--2--2--2--2--|--2--2--2--2--2--2--2--2--|
--0--0--0--0--0--0--0--0--|--0--0--0--0--0--0--0--0--|
--------------------------|--------------------------|
--------------------------|--------------------------|


  E  E  E  E  E  E  E  E     E  E  E  E  E  E  E  E   
--------3-----------3-----|--------3-----------3-----|
--3--3--3--3--3--3--3--3--|--3--3--3--3--3--3--3--3--|
--0--0--0--0--0--0--0--0--|--0--0--0--0--0--0--0--2--|
--2--2--2--2--2--2--2--0--|--0--0--0--0--0--0--0--0--|
--3--3--3--3--3--3--3--2--|--2--2--2--2--2--2--2-----|
--------------------------|--------------------------|


  E  E  E  E  E  E  E  E     E  E  E  E  E  E  E  E   
--------2-----------2-----|--------2-----------2-----|
--3--3--3--3--3--3--3--3--|--3--3--3--3--3--3--3--3--|
--2--2--2--2--2--2--2--2--|--2--2--2--2--2--2--2--2--|
--0--0--0--0--0--0--0--0--|--0--0--0--0--0--0--0--0--|
--------------------------|--------------------------|
--------------------------|--------------------------|


  E  E  E  E  E  E  E  E     E  E  E  E  E  E  E  E   
--1--1--1--1--1--1--1--1--|--0--0--0--0--0--0--0--0--|
--3--3--3--3--3--3--3--3--|--2--2--2--2--2--2--2--2--|
--3--3--3--3--3--3--3--3--|--2--2--2--2--2--2--2--2--|
--3--3--3--3--3--3--3--3--|--2--2--2--2--2--2--2--2--|
--1--1--1--1--1--1--1--1--|--0--0--0--0--0--0--0--0--|
--------------------------|--------------------------|


  E  E  E  E  E  E  E  E     E  E  E  E  E  E  E  E   
--2--2--2--2--2--2--2-----|--2--2--2-----2-----2-----|
--3--3--3--3--3--3--3-----|--3--3--3--2--3--2--3-----|
--2--2--2--2--2--2--2--0--|--4--4--4--2--4--2--4--0--|
--0--0--0--0--0--0--0--0--|--4--4--4--2--4--2--4--0--|
-----------------------0--|--2--2--2--2--2--2--2-----|
--------------------------|--------------------------|


  E  E  E  E  E  E  E  E     E  E  E  E  E  E  E  E   
--3--3--3--3--3--3--3--3--|--2--2--2--2--2--2--2--2--|
--3--3--3--3--3--3--3--3--|--3--3--3--3--3--3--3--3--|
--0--0--0--0--0--0--0--0--|--2--2--2--2--2--2--2--2--|
--0--0--0--0--0--0--0--0--|--0--0--0--0--0--0--0--0--|
--2--2--2--2--2--2--2--2--|--------------------------|
--3--3--3--3--3--3--3--3--|--------------------------|


  E  E  E  E  E  E  E  E     E  E  E  E  E  E  E  E   
--2--2--2--2--2--2--2-----|--2--2--2-----2-----2-----|
--3--3--3--3--3--3--3-----|--3--3--3--2--3--2--3-----|
--2--2--2--2--2--2--2--0--|--4--4--4--2--4--2--4--0--|
--0--0--0--0--0--0--0--0--|--4--4--4--2--4--2--4--0--|
-----------------------0--|--2--2--2--2--2--2--2-----|
--------------------------|--------------------------|


  E  E  E  E  E  E  E  E     E  E  E  E  E  E  E  E   
--3--3--3--3--3--3--3--3--|--2--2--2--2--2--2--2--2--|
--3--3--3--3--3--3--3--3--|--3--3--3--3--3--3--3--3--|
--0--0--0--0--0--0--0--0--|--2--2--2--2--2--2--2--2--|
--0--0--0--0--0--0--0--0--|--0--0--0--0--0--0--0--0--|
--2--2--2--2--2--2--2--2--|--------------------------|
--3--3--3--3--3--3--3--3--|--------------------------|


  E  E  E  E  E  E  E  E     E  E  E  E  E  E  E  E   
--2--2--2--2--2--2--2-----|--2--2--2-----2-----2-----|
--3--3--3--3--3--3--3-----|--3--3--3--2--3--2--3-----|
--2--2--2--2--2--2--2--0--|--4--4--4--2--4--2--4--0--|
--0--0--0--0--0--0--0--0--|--4--4--4--2--4--2--4--0--|
-----------------------0--|--2--2--2--2--2--2--2-----|
--------------------------|--------------------------|


  E  E  E  E  E  E  E  E     E  E  E  E  E  E  E  E   
--3--3--3--3--3--3--3--3--|--2--2--2--2--2--2--2--2--|
--3--3--3--3--3--3--3--3--|--3--3--3--3--3--3--3--3--|
--0--0--0--0--0--0--0--0--|--2--2--2--2--2--2--2--2--|
--0--0--0--0--0--0--0--0--|--0--0--0--0--0--0--0--0--|
--2--2--2--2--2--2--2--2--|--------------------------|
--3--3--3--3--3--3--3--3--|--------------------------|


  E  E  E  E  E  E  E  E     E  E  E  E  E  E  E  E   
--2--2--2--2--2--2--2-----|--2--2--2-----2-----2-----|
--3--3--3--3--3--3--3-----|--3--3--3--2--3--2--3-----|
--2--2--2--2--2--2--2--0--|--4--4--4--2--4--2--4--0--|
--0--0--0--0--0--0--0--0--|--4--4--4--2--4--2--4--0--|
-----------------------0--|--2--2--2--2--2--2--2-----|
--------------------------|--------------------------|


  E  E  E  E  E  E  E  E     E  E  E  E  E  E  E  E   
--3--3--3--3--3--3--3--3--|--2--2--2--2--2--2--2--2--|
--3--3--3--3--3--3--3--3--|--3--3--3--3--3--3--3--3--|
--0--0--0--0--0--0--0--0--|--2--2--2--2--2--2--2--2--|
--0--0--0--0--0--0--0--0--|--0--0--0--0--0--0--0--0--|
--2--2--2--2--2--2--2--2--|--------------------------|
--3--3--3--3--3--3--3--3--|--------------------------|


  E  E  E  E  E  E  E  E     E  E  E  E  E  E  E  E   
--------3-----------3-----|--------3-----------3-----|
--3--3--3--3--3--3--3--3--|--3--3--3--3--3--3--3--3--|
--0--0--0--0--0--0--0--0--|--0--0--0--0--0--0--0--2--|
--2--2--2--2--2--2--2--0--|--0--0--0--0--0--0--0--0--|
--3--3--3--3--3--3--3--2--|--2--2--2--2--2--2--2-----|
--------------------------|--------------------------|


  E  E  E  E  E  E  E  E     E  E  E  E  E  E  E  E   
--------2-----------2-----|--------2-----------2-----|
--3--3--3--3--3--3--3--3--|--3--3--3--3--3--3--3--3--|
--2--2--2--2--2--2--2--2--|--2--2--2--2--2--2--2--2--|
--0--0--0--0--0--0--0--0--|--0--0--0--0--0--0--0--0--|
--------------------------|--------------------------|
--------------------------|--------------------------|


  E  E  E  E  E  E  E  E     E  E  E  E  E  E  E  E   
--------3-----------3-----|--------3-----------3-----|
--3--3--3--3--3--3--3--3--|--3--3--3--3--3--3--3--3--|
--0--0--0--0--0--0--0--0--|--0--0--0--0--0--0--0--2--|
--2--2--2--2--2--2--2--0--|--0--0--0--0--0--0--0--0--|
--3--3--3--3--3--3--3--2--|--2--2--2--2--2--2--2-----|
--------------------------|--------------------------|


  E  E  E  E  E  E  E  E     E  E  E  E  E  E  E  E   
--------2-----------2-----|--------2-----------2-----|
--3--3--3--3--3--3--3--3--|--3--3--3--3--3--3--3--3--|
--2--2--2--2--2--2--2--2--|--2--2--2--2--2--2--2--2--|
--0--0--0--0--0--0--0--0--|--0--0--0--0--0--0--0--0--|
--------------------------|--------------------------|
--------------------------|--------------------------|


  E  E  E  E  E  E  E  E     E  E  E  E  E  E  E  E   
--1--1--1--1--1--1--1--1--|--0--0--0--0--0--0--0--0--|
--3--3--3--3--3--3--3--3--|--2--2--2--2--2--2--2--2--|
--3--3--3--3--3--3--3--3--|--2--2--2--2--2--2--2--2--|
--3--3--3--3--3--3--3--3--|--2--2--2--2--2--2--2--2--|
--1--1--1--1--1--1--1--1--|--0--0--0--0--0--0--0--0--|
--------------------------|--------------------------|


  E  E  E  E  E  E  E  E     E  E  E  E  E  E  E  E   
--2--2--2--2--2--2--2-----|--2--2--2-----2-----2-----|
--3--3--3--3--3--3--3-----|--3--3--3--2--3--2--3-----|
--2--2--2--2--2--2--2--0--|--4--4--4--2--4--2--4--0--|
--0--0--0--0--0--0--0--0--|--4--4--4--2--4--2--4--0--|
-----------------------0--|--2--2--2--2--2--2--2-----|
--------------------------|--------------------------|


  E  E  E  E  E  E  E  E     E  E  E  E  E  E  E  E   
--3--3--3--3--3--3--3--3--|--2--2--2--2--2--2--2--2--|
--3--3--3--3--3--3--3--3--|--3--3--3--3--3--3--3--3--|
--0--0--0--0--0--0--0--0--|--2--2--2--2--2--2--2--2--|
--0--0--0--0--0--0--0--0--|--0--0--0--0--0--0--0--0--|
--2--2--2--2--2--2--2--2--|--------------------------|
--3--3--3--3--3--3--3--3--|--------------------------|


  E  E  E  E  E  E  E  E     E  E  E  E  E  E  E  E   
--2--2--2--2--2--2--2-----|--2--2--2-----2-----2-----|
--3--3--3--3--3--3--3-----|--3--3--3--2--3--2--3-----|
--2--2--2--2--2--2--2--0--|--4--4--4--2--4--2--4--0--|
--0--0--0--0--0--0--0--0--|--4--4--4--2--4--2--4--0--|
-----------------------0--|--2--2--2--2--2--2--2-----|
--------------------------|--------------------------|


  E  E  E  E  E  E  E  E     E  E  E  E  E  E  E  E   
--3--3--3--3--3--3--3--3--|--2--2--2--2--2--2--2--2--|
--3--3--3--3--3--3--3--3--|--3--3--3--3--3--3--3--3--|
--0--0--0--0--0--0--0--0--|--2--2--2--2--2--2--2--2--|
--0--0--0--0--0--0--0--0--|--0--0--0--0--0--0--0--0--|
--2--2--2--2--2--2--2--2--|--------------------------|
--3--3--3--3--3--3--3--3--|--------------------------|


  E  E  E  E  E  E  E  E     E  E  E  E  E  E  E  E   
--2--2--2-----2-----2-----|--3--3--3--3--3--3--3--3--|
--3--3--3--2--3--2--3-----|--3--3--3--3--3--3--3--3--|
--4--4--4--2--4--2--4--0--|--0--0--0--0--0--0--0--0--|
--4--4--4--2--4--2--4--0--|--0--0--0--0--0--0--0--0--|
--2--2--2--2--2--2--2-----|--2--2--2--2--2--2--2--2--|
--------------------------|--3--3--3--3--3--3--3--3--|


  E  E  E  E  E  E  E  E     E  E  E  E  E  E  E  E   
--2--2--2--2--2--2--2--2--|--2--2--2--2--2--2--2--2--|
--3--3--3--3--3--3--3--3--|--3--3--3--3--3--3--3--3--|
--2--2--2--2--2--2--2--2--|--2--2--2--2--2--2--2--2--|
--0--0--0--0--0--0--0--0--|--0--0--0--0--0--0--0--0--|
--------------------------|--------------------------|
--------------------------|--------------------------|


  E  E  E  E  E  E  E  E     E  E  E  E  E  E  E  E   
--2--2--2-----2-----2-----|--3--3--3--3--3--3--3--3--|
--3--3--3--2--3--2--3-----|--3--3--3--3--3--3--3--3--|
--4--4--4--2--4--2--4--0--|--0--0--0--0--0--0--0--0--|
--4--4--4--2--4--2--4--0--|--0--0--0--0--0--0--0--0--|
--2--2--2--2--2--2--2-----|--2--2--2--2--2--2--2--2--|
--------------------------|--3--3--3--3--3--3--3--3--|


  E  E  E  E  E  E  E  E     E  E  E  E  E  E  E  E   
--------------------------|--3--3--3--3--3--3--3--3--|
--0--0--0--0--0--0--0--0--|--3--3--3--3--3--3--3--3--|
--1--1--1--1--1--1--1--1--|--0--0--0--0--0--0--0--0--|
--2--2--2--2--2--2--2--2--|--0--0--0--0--0--0--0--0--|
--2--2--2--2--2--2--2--2--|--2--2--2--2--2--2--2--2--|
--0--0--0--0--0--0--0--0--|--3--3--3--3--3--3--3--3--|


  E  E  E  E  E  E  E  E     E  E  E  E  E  E  E  E   
--2--2--2--2--2--2--2-----|--2--2--2-----2-----2-----|
--3--3--3--3--3--3--3-----|--3--3--3--2--3--2--3-----|
--2--2--2--2--2--2--2--0--|--4--4--4--2--4--2--4--0--|
--0--0--0--0--0--0--0--0--|--4--4--4--2--4--2--4--0--|
-----------------------0--|--2--2--2--2--2--2--2-----|
--------------------------|--------------------------|


  E  E  E  E  E  E  E  E     E  E  E  E  E  E  E  E   
--3--3--3--3--3--3--3--3--|--2--2--2--2--2--2--2--2--|
--3--3--3--3--3--3--3--3--|--3--3--3--3--3--3--3--3--|
--0--0--0--0--0--0--0--0--|--2--2--2--2--2--2--2--2--|
--0--0--0--0--0--0--0--0--|--0--0--0--0--0--0--0--0--|
--2--2--2--2--2--2--2--2--|--------------------------|
--3--3--3--3--3--3--3--3--|--------------------------|


  E  E  E  E  E  E  E  E     E  E  E  E  E  E  E  E   
--2--2--2--2--2--2--2-----|--2--2--2-----2-----2-----|
--3--3--3--3--3--3--3-----|--3--3--3--2--3--2--3-----|
--2--2--2--2--2--2--2--0--|--4--4--4--2--4--2--4--0--|
--0--0--0--0--0--0--0--0--|--4--4--4--2--4--2--4--0--|
-----------------------0--|--2--2--2--2--2--2--2-----|
--------------------------|--------------------------|


  E  E  E  E  E  E  E  E     E  E  E  E  E  E  E  E   
--3--3--3--3--3--3--3--3--|--2--2--2--2--2--2--2--2--|
--3--3--3--3--3--3--3--3--|--3--3--3--3--3--3--3--3--|
--0--0--0--0--0--0--0--0--|--2--2--2--2--2--2--2--2--|
--0--0--0--0--0--0--0--0--|--0--0--0--0--0--0--0--0--|
--2--2--2--2--2--2--2--2--|--------------------------|
--3--3--3--3--3--3--3--3--|--------------------------|


  E  E  E  E  E  E  E  E     E  E  E  E  E  E  E  E   
--2--2--2--2--2--2--2-----|--2--2--2-----2-----2-----|
--3--3--3--3--3--3--3-----|--3--3--3--2--3--2--3-----|
--2--2--2--2--2--2--2--0--|--4--4--4--2--4--2--4--0--|
--0--0--0--0--0--0--0--0--|--4--4--4--2--4--2--4--0--|
-----------------------0--|--2--2--2--2--2--2--2-----|
--------------------------|--------------------------|


  E  E  E  E  E  E  E  E     E  E  E  E  E  E  E  E   
--3--3--3--3--3--3--3--3--|--2--2--2--2--2--2--2--2--|
--3--3--3--3--3--3--3--3--|--3--3--3--3--3--3--3--3--|
--0--0--0--0--0--0--0--0--|--2--2--2--2--2--2--2--2--|
--0--0--0--0--0--0--0--0--|--0--0--0--0--0--0--0--0--|
--2--2--2--2--2--2--2--2--|--------------------------|
--3--3--3--3--3--3--3--3--|--------------------------|


  E  E  E  E  E  E  E  E     E  E  E  E  E  E  E  E   
--2--2--2--2--2--2--2-----|--2--2--2-----2-----2-----|
--3--3--3--3--3--3--3-----|--3--3--3--2--3--2--3-----|
--2--2--2--2--2--2--2--0--|--4--4--4--2--4--2--4--0--|
--0--0--0--0--0--0--0--0--|--4--4--4--2--4--2--4--0--|
-----------------------0--|--2--2--2--2--2--2--2-----|
--------------------------|--------------------------|


  E  E  E  E  E  E  E  E     E  E  E  E  E  E  E  E   
--3--3--3--3--3--3--3--3--|--2--2--2--2--2--2--2--2--|
--3--3--3--3--3--3--3--3--|--3--3--3--3--3--3--3--3--|
--0--0--0--0--0--0--0--0--|--2--2--2--2--2--2--2--2--|
--0--0--0--0--0--0--0--0--|--0--0--0--0--0--0--0--0--|
--2--2--2--2--2--2--2--2--|--------------------------|
--3--3--3--3--3--3--3--3--|--------------------------|


  E  E  E  E  E  E  E  E     E  E  E  E  E  E  E  E   
--2--2--2--2--2--2--2-----|--2--2--2-----2-----2-----|
--3--3--3--3--3--3--3-----|--3--3--3--2--3--2--3-----|
--2--2--2--2--2--2--2--0--|--4--4--4--2--4--2--4--0--|
--0--0--0--0--0--0--0--0--|--4--4--4--2--4--2--4--0--|
-----------------------0--|--2--2--2--2--2--2--2-----|
--------------------------|--------------------------|


  E  E  E  E  E  E  E  E     E  E  E  E  E  E  E  E   
--3--3--3--3--3--3--3--3--|--2--2--2--2--2--2--2--2--|
--3--3--3--3--3--3--3--3--|--3--3--3--3--3--3--3--3--|
--0--0--0--0--0--0--0--0--|--2--2--2--2--2--2--2--2--|
--0--0--0--0--0--0--0--0--|--0--0--0--0--0--0--0--0--|
--2--2--2--2--2--2--2--2--|--------------------------|
--3--3--3--3--3--3--3--3--|--------------------------|


  E  E  E  E  E  E  E  E     E  E  E  E  E  E  E  E   
--2--2--2--2--2--2--2-----|--2--2--2-----2-----2-----|
--3--3--3--3--3--3--3-----|--3--3--3--2--3--2--3-----|
--2--2--2--2--2--2--2--0--|--4--4--4--2--4--2--4--0--|
--0--0--0--0--0--0--0--0--|--4--4--4--2--4--2--4--0--|
-----------------------0--|--2--2--2--2--2--2--2-----|
--------------------------|--------------------------|


  E  E  E  E  E  E  E  E     E  E  E  E  E  E  E  E   
--3--3--3--3--3--3--3--3--|--2--2--2--2--2--2--2--2--|
--3--3--3--3--3--3--3--3--|--3--3--3--3--3--3--3--3--|
--0--0--0--0--0--0--0--0--|--2--2--2--2--2--2--2--2--|
--0--0--0--0--0--0--0--0--|--0--0--0--0--0--0--0--0--|
--2--2--2--2--2--2--2--2--|--------------------------|
--3--3--3--3--3--3--3--3--|--------------------------|


  E  E  E  E  E  E  E  E     E  E  E  E  E  E  E  E   
--2--2--2--2--2--2--2-----|--2--2--2-----2-----2-----|
--3--3--3--3--3--3--3-----|--3--3--3--2--3--2--3-----|
--2--2--2--2--2--2--2--0--|--4--4--4--2--4--2--4--0--|
--0--0--0--0--0--0--0--0--|--4--4--4--2--4--2--4--0--|
-----------------------0--|--2--2--2--2--2--2--2-----|
--------------------------|--------------------------|


  E  E  E  E  E  E  E  E     E  E  E  E  E  E  E  E   
--3--3--3--3--3--3--3--3--|--2--2--2--2--2--2--2--2--|
--3--3--3--3--3--3--3--3--|--3--3--3--3--3--3--3--3--|
--0--0--0--0--0--0--0--0--|--2--2--2--2--2--2--2--2--|
--0--0--0--0--0--0--0--0--|--0--0--0--0--0--0--0--0--|
--2--2--2--2--2--2--2--2--|--------------------------|
--3--3--3--3--3--3--3--3--|--------------------------|


  E  E  E  E  E  E  E  E     E  E  E  E  E  E  E  E   
--2--2--2--2--2--2--2-----|--2--2--2-----2-----2-----|
--3--3--3--3--3--3--3-----|--3--3--3--2--3--2--3-----|
--2--2--2--2--2--2--2--0--|--4--4--4--2--4--2--4--0--|
--0--0--0--0--0--0--0--0--|--4--4--4--2--4--2--4--0--|
-----------------------0--|--2--2--2--2--2--2--2-----|
--------------------------|--------------------------|


  E  E  E  E  E  E  E  E     E  E  E  E  E  E  E  E   
--3--3--3--3--3--3--3--3--|--2--2--2--2--2--2--2--2--|
--3--3--3--3--3--3--3--3--|--3--3--3--3--3--3--3--3--|
--0--0--0--0--0--0--0--0--|--2--2--2--2--2--2--2--2--|
--0--0--0--0--0--0--0--0--|--0--0--0--0--0--0--0--0--|
--2--2--2--2--2--2--2--2--|--------------------------|
--3--3--3--3--3--3--3--3--|--------------------------|


  E  E  E  E  E  E  E  E     E  E  E  E  E  E  E  E   
--2--2--2--2--2--2--2-----|--2--2--2-----2-----2-----|
--3--3--3--3--3--3--3-----|--3--3--3--2--3--2--3-----|
--2--2--2--2--2--2--2--0--|--4--4--4--2--4--2--4--0--|
--0--0--0--0--0--0--0--0--|--4--4--4--2--4--2--4--0--|
-----------------------0--|--2--2--2--2--2--2--2-----|
--------------------------|--------------------------|


  E  E  E  E  E  E  E  E     E  E  E  E  E  E  E  E   
--3--3--3--3--3--3--3--3--|--2--2--2--2--2--2--2--2--|
--3--3--3--3--3--3--3--3--|--3--3--3--3--3--3--3--3--|
--0--0--0--0--0--0--0--0--|--2--2--2--2--2--2--2--2--|
--0--0--0--0--0--0--0--0--|--0--0--0--0--0--0--0--0--|
--2--2--2--2--2--2--2--2--|--------------------------|
--3--3--3--3--3--3--3--3--|--------------------------|


  E  E  E  E  E  E  E  E     E  E  E  E  E  E  E  E   
--2--2--2--2--2--2--2-----|--2--2--2-----2-----2-----|
--3--3--3--3--3--3--3-----|--3--3--3--2--3--2--3-----|
--2--2--2--2--2--2--2--0--|--4--4--4--2--4--2--4--0--|
--0--0--0--0--0--0--0--0--|--4--4--4--2--4--2--4--0--|
-----------------------0--|--2--2--2--2--2--2--2-----|
--------------------------|--------------------------|


  E  E  E  E  E  E  E  E     E  E  E  E  E  E  E  E   
--3--3--3--3--3--3--3--3--|--2--2--2--2--2--2--2--2--|
--3--3--3--3--3--3--3--3--|--3--3--3--3--3--3--3--3--|
--0--0--0--0--0--0--0--0--|--2--2--2--2--2--2--2--2--|
--0--0--0--0--0--0--0--0--|--0--0--0--0--0--0--0--0--|
--2--2--2--2--2--2--2--2--|--------------------------|
--3--3--3--3--3--3--3--3--|--------------------------|


  E  E  E  E  E  E  E  E     E  E  E  E  E  E  E  E   
--2--2--2--2--2--2--2-----|--2--2--2-----2-----2-----|
--3--3--3--3--3--3--3-----|--3--3--3--2--3--2--3-----|
--2--2--2--2--2--2--2--0--|--4--4--4--2--4--2--4--0--|
--0--0--0--0--0--0--0--0--|--4--4--4--2--4--2--4--0--|
-----------------------0--|--2--2--2--2--2--2--2-----|
--------------------------|--------------------------|


  E  E  E  E  E  E  E  E     E  E  E  E  E  E  E  E   
--3--3--3--3--3--3--3--3--|--2--2--2--2--2--2--2--2--|
--3--3--3--3--3--3--3--3--|--3--3--3--3--3--3--3--3--|
--0--0--0--0--0--0--0--0--|--2--2--2--2--2--2--2--2--|
--0--0--0--0--0--0--0--0--|--0--0--0--0--0--0--0--0--|
--2--2--2--2--2--2--2--2--|--------------------------|
--3--3--3--3--3--3--3--3--|--------------------------|


  E  E  E  E  E  E  E  E     E  E  E  E  E  E  E  E   
--2--2--2--2--2--2--2-----|--2--2--2-----2-----2-----|
--3--3--3--3--3--3--3-----|--3--3--3--2--3--2--3-----|
--2--2--2--2--2--2--2--0--|--4--4--4--2--4--2--4--0--|
--0--0--0--0--0--0--0--0--|--4--4--4--2--4--2--4--0--|
-----------------------0--|--2--2--2--2--2--2--2-----|
--------------------------|--------------------------|


  E  E  E  E  E  E  E  E     W                        
--3--3--3--3--3--3--3--3--|--2----------------|-----||
--3--3--3--3--3--3--3--3--|--3----------------|-----||
--0--0--0--0--0--0--0--0--|--2----------------|-----||
--0--0--0--0--0--0--0--0--|--0----------------|-----||
--2--2--2--2--2--2--2--2--|-------------------|-----||
--3--3--3--3--3--3--3--3--|-------------------|-----||




====================================================
====================================================



Guitar 2



      H.           Q       H.           Q       H.           Q     
D#||--5------------7----|--------------------|--------------------|
A#||--------------------|--7------------8----|--7-----------------|
F#||--------------------|--------------------|---------------7----|
C#||--------------------|--------------------|--------------------|
G#||--------------------|--------------------|--------------------|
D#||--------------------|--------------------|--------------------|


  W                   H.           Q       H.           Q     
-------------------|--5------------7----|--------------------|
--7----------------|--------------------|--7-----------------|
-------------------|--------------------|---------------7----|
-------------------|--------------------|--------------------|
-------------------|--------------------|--------------------|
-------------------|--------------------|--------------------|


  H.           Q        W                    W                 
---------------------|-------------------|--------------------|
--7------------8s----|--3----------------|--13----------------|
---------------------|-------------------|--12----------------|
---------------------|-------------------|--------------------|
---------------------|-------------------|--------------------|
---------------------|-------------------|--------------------|


   W                    Q     Q     Q     Q        Q     Q     Q     Q     
--------------------|--------------------------|--------------------------|
--12----------------|--------10----------10----|--------10----------10----|
--12----------------|--11----------11----------|--11----------11----------|
--------------------|--------------------------|--------------------------|
--------------------|--------------------------|--------------------------|
--------------------|--------------------------|--------------------------|


   W                    W                    Q     Q     Q     Q     
--------------------|--------------------|--------------------------|
--13----------------|--12----------------|--------10----------10----|
--12----------------|--12----------------|--11----------11----------|
--------------------|--------------------|--------------------------|
--------------------|--------------------|--------------------------|
--------------------|--------------------|--------------------------|


   Q     Q     Q     Q        W                    W                         
--------------------------|--------------------|--------------------|-------|
--------10----------10----|--11----------------|--10----------------|-------|
--11----------11----------|--------------------|--------------------|-------|
--------------------------|--------------------|--------------------|-------|
--------------------------|--------------------|--------------------|-------|
--------------------------|--------------------|--------------------|-------|


                                                          H.           Q     
-------|-------|-------|-------|-------|-------|-------|--5------------7----|
-------|-------|-------|-------|-------|-------|-------|--------------------|
-------|-------|-------|-------|-------|-------|-------|--------------------|
-------|-------|-------|-------|-------|-------|-------|--------------------|
-------|-------|-------|-------|-------|-------|-------|--------------------|
-------|-------|-------|-------|-------|-------|-------|--------------------|


  H.           Q       H.           Q       W                 
--------------------|--------------------|-------------------|
--7------------8----|--7-----------------|--7----------------|
--------------------|---------------7----|-------------------|
--------------------|--------------------|-------------------|
--------------------|--------------------|-------------------|
--------------------|--------------------|-------------------|


  H.           Q       H.           Q       H.           Q      
--5------------7----|--------------------|---------------------|
--------------------|--7-----------------|--7------------8s----|
--------------------|---------------7----|---------------------|
--------------------|--------------------|---------------------|
--------------------|--------------------|---------------------|
--------------------|--------------------|---------------------|


  W                                                                             
-------------------|-------------------|-------------------|-------------------|
--3----------------|-------------------|-------------------|-------------------|
-------------------|-------------------|-------------------|-------------------|
-------------------|-------------------|-------------------|-------------------|
-------------------|-------------------|-------------------|-------------------|
-------------------|-------------------|-------------------|-------------------|


-------------------|-------------------|-------------------|-------------------|
-------------------|-------------------|-------------------|-------------------|
-------------------|-------------------|-------------------|-------------------|
-------------------|-------------------|-------------------|-------------------|
-------------------|-------------------|-------------------|-------------------|
-------------------|-------------------|-------------------|-------------------|


                                                              W                 
-------------------|-------------------|-------------------|--2----------------|
-------------------|-------------------|-------------------|--3----------------|
-------------------|-------------------|-------------------|--2----------------|
-------------------|-------------------|-------------------|--0----------------|
-------------------|-------------------|-------------------|-------------------|
-------------------|-------------------|-------------------|-------------------|


  W                   W                   W                   W                 
-------------------|-------------------|--2----------------|--2----------------|
--3----------------|--3----------------|--3----------------|--3----------------|
--4----------------|--0----------------|--2----------------|--2----------------|
--4----------------|--0----------------|--0----------------|--0----------------|
--2----------------|--x----------------|-------------------|-------------------|
-------------------|--3----------------|-------------------|-------------------|


  W                   W                   W                   W                 
-------------------|-------------------|--2----------------|-------------------|
--3----------------|--3----------------|--3----------------|--3----------------|
--4----------------|--0----------------|--2----------------|--4----------------|
--4----------------|--0----------------|--0----------------|--4----------------|
--2----------------|--x----------------|-------------------|--2----------------|
-------------------|--3----------------|-------------------|-------------------|


  W                   H.           E  E     E  E  E  Q    E  Q     
-------------------|--2------------L-----|------------------------|
--3----------------|--3------------L-----|-----3----------3-------|
--0----------------|--2------------L--0--|--L-----0----------0----|
--0----------------|--0------------L-----|-----------4------------|
--x----------------|---------------------|------------------------|
--3----------------|---------------------|------------------------|


  W                   W                   W                   W                 
-------------------|-------------------|-------------------|-------------------|
--3----------------|--3----------------|--5----------------|--3----------------|
--4----------------|--0----------------|--4----------------|--0----------------|
--4----------------|--0----------------|--2----------------|--0----------------|
--2----------------|--x----------------|--2----------------|--x----------------|
-------------------|--3----------------|-------------------|--3----------------|


  S E.  E  E  Q    Q       E  E  E  E  H           E  E  E  E  Q    Q     
----5---L-----5---------|-----5--------5--------|-----5--------5---------|
--7--------7-------7----|--7-----7--7-----------|--7-----7--7-------7----|
------------------------|-----------------------|------------------------|
------------------------|-----------------------|------------------------|
------------------------|-----------------------|------------------------|
------------------------|-----------------------|------------------------|


  W                   E  Q    E  Q    Q       E  Q    E  H         
-------------------|-----5-------5---------|-----5-------5--------|
--7----------------|--7-------7-------7----|--7-------7-----------|
-------------------|-----------------------|----------------------|
-------------------|-----------------------|----------------------|
-------------------|-----------------------|----------------------|
-------------------|-----------------------|----------------------|


  E  Q    E  Q    E  E      W                   E  Q    E  Q    Q     
-----5-------5-----------|-------------------|-----5-------5---------|
--7-------7-------7--L\--|--3----------------|--7-------7-------7----|
-------------------------|-------------------|-----------------------|
-------------------------|-------------------|-----------------------|
-------------------------|-------------------|-----------------------|
-------------------------|-------------------|-----------------------|


  E  Q    E  H           E  Q    E  Q    Q       W                 
-----5-------5--------|-----5-------5---------|-------------------|
--7-------7-----------|--7-------7-------7----|--7----------------|
----------------------|-----------------------|-------------------|
----------------------|-----------------------|-------------------|
----------------------|-----------------------|-------------------|
----------------------|-----------------------|-------------------|


  E  Q    E  Q    Q       E  Q    E  H           E  Q    E  Q    E  E    
-----5-------5---------|-----5-------5--------|-----5-------5-----------|
--7-------7-------7----|--7-------7-----------|--7-------7-------7--L\--|
-----------------------|----------------------|-------------------------|
-----------------------|----------------------|-------------------------|
-----------------------|----------------------|-------------------------|
-----------------------|----------------------|-------------------------|


  W                   E  Q    E  Q    Q       E  Q    E  H         
-------------------|-----5-------5---------|-----5-------5--------|
--3----------------|--7-------7-------7----|--7-------7-----------|
-------------------|-----------------------|----------------------|
-------------------|-----------------------|----------------------|
-------------------|-----------------------|----------------------|
-------------------|-----------------------|----------------------|


  E  Q    E  Q    Q       W                   E  Q    E  Q    Q     
-----5-------5---------|-------------------|-----5-------5---------|
--7-------7-------7----|--7----------------|--7-------7-------7----|
-----------------------|-------------------|-----------------------|
-----------------------|-------------------|-----------------------|
-----------------------|-------------------|-----------------------|
-----------------------|-------------------|-----------------------|


  E  Q    E  H           E  Q    E  Q    E  E      W                 
-----5-------5--------|-----5-------5-----------|-------------------|
--7-------7-----------|--7-------7-------7--L\--|--3----------------|
----------------------|-------------------------|-------------------|
----------------------|-------------------------|-------------------|
----------------------|-------------------------|-------------------|
----------------------|-------------------------|-------------------|


  E  Q    E  Q    Q       E  Q    E  H           E  Q    E  Q    Q     
-----5-------5---------|-----5-------5--------|-----5-------5---------|
--7-------7-------7----|--7-------7-----------|--7-------7-------7----|
-----------------------|----------------------|-----------------------|
-----------------------|----------------------|-----------------------|
-----------------------|----------------------|-----------------------|
-----------------------|----------------------|-----------------------|


  W                   E  Q    E  Q    Q       E  Q    E  H         
-------------------|-----5-------5---------|-----7----5--7--------|
--7----------------|--7-------7-------7----|--7-------------------|
-------------------|-----------------------|----------------------|
-------------------|-----------------------|----------------------|
-------------------|-----------------------|----------------------|
-------------------|-----------------------|----------------------|


    E   Q     E   Q     E    E       H.            Q      
--/10--12----10--12----12s--14~--|---L------------14~----|
---------------------------------|-----------------------|
---------------------------------|-----------------------|
---------------------------------|-----------------------|
---------------------------------|-----------------------|
---------------------------------|-----------------------|


   H.             E    E      H.             E    E   
--14~------------14s--12--|--12~------------12s--14--|
--------------------------|--------------------------|
--------------------------|--------------------------|
--------------------------|--------------------------|
--------------------------|--------------------------|
--------------------------|--------------------------|


   H.             E    E      W                     H.             E    E   
--14~------------14s--12--|--10~----------------|--14~------------14s--12--|
--------------------------|---------------------|--------------------------|
--------------------------|---------------------|--------------------------|
--------------------------|---------------------|--------------------------|
--------------------------|---------------------|--------------------------|
--------------------------|---------------------|--------------------------|


   H.             E    E      H.             E    E      W                  
--12~------------12s--14--|--14~------------14s--12--|--10~----------------|
--------------------------|--------------------------|---------------------|
--------------------------|--------------------------|---------------------|
--------------------------|--------------------------|---------------------|
--------------------------|--------------------------|---------------------|
--------------------------|--------------------------|---------------------|


    E   Q     E   Q     Q        E   Q     E   H         
-------17--------17----------|------17--------17--------|
--/19--------19--------19----|--19--------19------------|
-----------------------------|--------------------------|
-----------------------------|--------------------------|
-----------------------------|--------------------------|
-----------------------------|--------------------------|


   E   Q     E   Q     Q        W                  
------17--------17----------|---------------------|
--19--------19--------19----|--19~----------------|
----------------------------|---------------------|
----------------------------|---------------------|
----------------------------|---------------------|
----------------------------|---------------------|


    E   Q     E   Q     Q        E   Q     E   H         
-------17--------17----------|------17--------17--------|
--/19--------19--------19----|--19--------19------------|
-----------------------------|--------------------------|
-----------------------------|--------------------------|
-----------------------------|--------------------------|
-----------------------------|--------------------------|


   E   Q     E   Q     Q         W                    W                  
------17--------17-----------|--------------------|--------------------||
--19--------19--------19\----|--15----------------|---L----------------||
-----------------------------|--------------------|--------------------||
-----------------------------|--------------------|--------------------||
-----------------------------|--------------------|--------------------||
-----------------------------|--------------------|--------------------||




====================================================
====================================================




Guitar 3



D#||-------|-------|-------|-------|-------|-------|-------|-------|-------|
A#||-------|-------|-------|-------|-------|-------|-------|-------|-------|
F#||-------|-------|-------|-------|-------|-------|-------|-------|-------|
C#||-------|-------|-------|-------|-------|-------|-------|-------|-------|
G#||-------|-------|-------|-------|-------|-------|-------|-------|-------|
D#||-------|-------|-------|-------|-------|-------|-------|-------|-------|


-------|-------|-------|-------|-------|-------|-------|
-------|-------|-------|-------|-------|-------|-------|
-------|-------|-------|-------|-------|-------|-------|
-------|-------|-------|-------|-------|-------|-------|
-------|-------|-------|-------|-------|-------|-------|
-------|-------|-------|-------|-------|-------|-------|


  E  E  Q    E  Q    E     E  E  E  E  E  E  Q       E  E  E  H        E   
------------------------|--------5-----5----------|-----------2-----------|
--------6-------6----6--|-----------5-----5--5----|--------3--L-----------|
-------------7----------|-----7--------------7----|-----2-----L-----------|
-----8------------------|--7----------------------|--0--------L-----------|
--8---------------------|-------------------------|-----------------------|
------------------------|-------------------------|-----------------------|


  E  E  E  H        E     E  E  E  H        E     E  E  E  H        E   
-----------2-----------|-----------3-----------|-----------2-----------|
-----------3-----------|-----------3-----------|--------3--L-----------|
--------4--L-----------|--------0--L-----------|-----2-----L-----------|
-----4-----L-----------|-----0-----L-----------|--0--------L-----------|
--2--------L-----------|-----------------------|-----------------------|
-----------------------|--3--------L-----------|-----------------------|


  E  E  E  H        E     E  E  E  H        E     E  E  E  H        E   
-----------2-----------|-----------2-----------|-----------3-----------|
--------3--L-----------|-----------3-----------|-----------3-----------|
-----2-----L-----------|--------4--L-----------|--------0--L-----------|
--0--------L-----------|-----4-----L-----------|-----0-----L-----------|
-----------------------|--2--------L-----------|-----------------------|
-----------------------|-----------------------|--3--------L-----------|


  E  E  E  H        E      E   E   E   H        E     E  E  E  H        E   
-----------2-----------|--------------10-----------|-----------7-----------|
--------3--L-----------|--------------10-----------|-----------7-----------|
-----2-----L-----------|----------11---L-----------|--------7--L-----------|
--0--------L-----------|------12-------L-----------|-----9-----L-----------|
-----------------------|--12-----------------------|--9--------------------|
-----------------------|---------------------------|-----------------------|


  E  E  E  H        E     E  E  E  H        E      E   E   E   H        E   
-----------3-----------|-----------2-----------|--------------10-----------|
-----------3-----------|--------3--3-----------|--------------10-----------|
--------4--L-----------|-----2-----L-----------|----------11---L-----------|
-----5-----L-----------|--0--------L-----------|------12-------L-----------|
--5--------------------|-----------------------|--12-----------------------|
-----------------------|-----------------------|---------------------------|


  E  E  E  H        E     E  E  E  H        E     E  E  E  H        E    
-----------7-----------|-----------3-----------|------------------------|
-----------7-----------|-----------3-----------|-----------7--------7s--|
--------7--L-----------|--------3--L-----------|--------7-----------7s--|
-----9-----L-----------|-----5-----L-----------|-----7------------------|
--9--------------------|--5--------------------|--5---------------------|
-----------------------|-----------------------|------------------------|


                                NH                                           
  W                             H.           E  E     E   Q    E   H         
-------------------|-------|-----------------------|-----------7------------|
--5----------------|-------|--------------------8--|--L--10-------10--------|
--5----------------|-------|--<>7------------------|------------------------|
-------------------|-------|--<>7------------------|------------------------|
-------------------|-------|-----------------------|------------------------|
-------------------|-------|-----------------------|------------------------|


  W                    H        H           H.            E   E   
--------------------|--------------------|-------------------10--|
--8~----------------|--L-----------------|-----------------------|
--------------------|--------------------|--7~-------------------|
--------------------|--------------------|-----------------------|
--------------------|--------------------|-----------------------|
--------------------|--------------------|-----------------------|


   E   Q    Q    Q.        E  E  Q    E  Q    E     E  E  E  E  E  E  Q     
---L--------------------|------------------------|--------5-----5----------|
------10----8----7------|--6-----6-------6----6--|-----------5-----5--5----|
------------------------|-------------7----------|-----7--------------7----|
------------------------|-----8------------------|--7----------------------|
------------------------|--8---------------------|-------------------------|
------------------------|------------------------|-------------------------|


  E  E  E  H        E     E  E  E  H        E     E  E  E  H        E   
-----------2-----------|-----------2-----------|-----------3-----------|
--------3--L-----------|-----------3-----------|-----------3-----------|
-----2-----L-----------|--------4--L-----------|--------0--L-----------|
--0--------L-----------|-----4-----L-----------|-----0-----L-----------|
-----------------------|--2--------L-----------|-----------------------|
-----------------------|-----------------------|--3--------L-----------|


  E  E  E  H        E     E  E  E  H        E     E  E  E  H        E   
-----------2-----------|-----------2-----------|-----------2-----------|
--------3--L-----------|--------3--L-----------|-----------3-----------|
-----2-----L-----------|-----2-----L-----------|--------4--L-----------|
--0--------L-----------|--0--------L-----------|-----4-----L-----------|
-----------------------|-----------------------|--2--------L-----------|
-----------------------|-----------------------|-----------------------|


  E  E  E  H        E     E  E  E  H        E                                   
-----------3-----------|-----------2-----------|-------|-------|-------|-------|
-----------3-----------|--------3--L-----------|-------|-------|-------|-------|
--------0--L-----------|-----2-----L-----------|-------|-------|-------|-------|
-----0-----L-----------|--0--------L-----------|-------|-------|-------|-------|
-----------------------|-----------------------|-------|-------|-------|-------|
--3--------L-----------|-----------------------|-------|-------|-------|-------|


-------|-------|-------|-------|-------|-------|-------|-------|-------|-------|
-------|-------|-------|-------|-------|-------|-------|-------|-------|-------|
-------|-------|-------|-------|-------|-------|-------|-------|-------|-------|
-------|-------|-------|-------|-------|-------|-------|-------|-------|-------|
-------|-------|-------|-------|-------|-------|-------|-------|-------|-------|
-------|-------|-------|-------|-------|-------|-------|-------|-------|-------|


-------|-------|-------|-------|-------|-------|-------|-------|-------|-------|
-------|-------|-------|-------|-------|-------|-------|-------|-------|-------|
-------|-------|-------|-------|-------|-------|-------|-------|-------|-------|
-------|-------|-------|-------|-------|-------|-------|-------|-------|-------|
-------|-------|-------|-------|-------|-------|-------|-------|-------|-------|
-------|-------|-------|-------|-------|-------|-------|-------|-------|-------|


  W                   W                   W                   W                 
--2----------------|-------------------|-------------------|--2----------------|
--3----------------|--3----------------|--3----------------|--3----------------|
--2----------------|--4----------------|--0----------------|--2----------------|
--0----------------|--4----------------|--0----------------|--0----------------|
-------------------|--2----------------|--x----------------|-------------------|
-------------------|-------------------|--3----------------|-------------------|


  W                   W                   W                   W                 
--2----------------|-------------------|-------------------|--2----------------|
--3----------------|--3----------------|--3----------------|--3----------------|
--2----------------|--4----------------|--0----------------|--2----------------|
--0----------------|--4----------------|--0----------------|--0----------------|
-------------------|--2----------------|--x----------------|-------------------|
-------------------|-------------------|--3----------------|-------------------|


  W                   W                   W                   W                 
--2----------------|-------------------|-------------------|--2----------------|
--3----------------|--3----------------|--3----------------|--3----------------|
--2----------------|--4----------------|--0----------------|--2----------------|
--0----------------|--4----------------|--0----------------|--0----------------|
-------------------|--2----------------|--x----------------|-------------------|
-------------------|-------------------|--3----------------|-------------------|


  W                   W                   W                   W                 
--2----------------|-------------------|-------------------|--2----------------|
--3----------------|--3----------------|--3----------------|--3----------------|
--2----------------|--4----------------|--0----------------|--2----------------|
--0----------------|--4----------------|--0----------------|--0----------------|
-------------------|--2----------------|--x----------------|-------------------|
-------------------|-------------------|--3----------------|-------------------|


  W                   W                   W                   W                 
--2----------------|-------------------|-------------------|--2----------------|
--3----------------|--3----------------|--3----------------|--3----------------|
--2----------------|--4----------------|--0----------------|--2----------------|
--0----------------|--4----------------|--0----------------|--0----------------|
-------------------|--2----------------|--x----------------|-------------------|
-------------------|-------------------|--3----------------|-------------------|


  W                   W                   W                   W                 
--2----------------|-------------------|-------------------|--2----------------|
--3----------------|--3----------------|--3----------------|--3----------------|
--2----------------|--4----------------|--0----------------|--2----------------|
--0----------------|--4----------------|--0----------------|--0----------------|
-------------------|--2----------------|--x----------------|-------------------|
-------------------|-------------------|--3----------------|-------------------|


  W                   W                   W                   W                 
--2----------------|-------------------|-------------------|--2----------------|
--3----------------|--3----------------|--3----------------|--3----------------|
--2----------------|--4----------------|--0----------------|--2----------------|
--0----------------|--4----------------|--0----------------|--0----------------|
-------------------|--2----------------|--x----------------|-------------------|
-------------------|-------------------|--3----------------|-------------------|


  W                   W                   W                   W                 
--2----------------|-------------------|-------------------|--2----------------|
--3----------------|--3----------------|--3----------------|--3----------------|
--2----------------|--4----------------|--0----------------|--2----------------|
--0----------------|--4----------------|--0----------------|--0----------------|
-------------------|--2----------------|--x----------------|-------------------|
-------------------|-------------------|--3----------------|-------------------|


-------||
-------||
-------||
-------||
-------||
-------||




Duration Legend
---------------
W - whole
H - half
Q - quarter
E - 8th
S - 16th
T - 32nd
X - 64th
. - note dotted
|-n-|  - n-tuplets


Tablature Legend
----------------
L - tied note
x - dead note
g - grace note
(n) - ghost note
> - accentuded note
NH - natural harmonic
AH - artificial harmonic
TH - tapped harmonic
SH - semi harmonic
PH - pitch harmonic
h - hammer on
p - pull off
b - bend
br - bendRelease
pb - preBend
pbr - preBendRelease
brb - bendReleaseBend
\n/ - tremolo bar dip
\n - tremolo bar dive
-/n - tremolo bar Release up
/n\ - tremolo bar inverted dip
/n - tremolo bar return
-\n - tremolo bar Release down
S - shift slide
s - legato slide
/ -  slide into from below or out of upwards
\ -  slide into from above or out of downwards
~ - vibrato
W - wide vibrato
tr - trill
TP - tremolo picking
T - tapping
S - slap
P - pop
< - fade in
^ - brush up
v - brush down
Tap to rate this tab
# A B C D E F G H I J K L M N O P Q R S T U V W X Y Z