Song name
# A B C D E F G H I J K L M N O P Q R S T U V W X Y Z

Collective Soul - What I Can Give You tab

-----------------------------------------------------------------------------
	           
                    Collective Soul - What I Can Give You (GUITAR)
                       
-----------------------------------------------------------------------------
Tabbed by: Scotto10

Tuning: Half Step Down

=============================================================================

Guitar 1



              E  E  E  E  E  E  E  E     E  E  E  E  E  E  E  E   
D#||-------|--------------------------|--------------------------|
A#||-------|--------------------------|--------------------------|
F#||-------|--7--7--7--7--7--7--7--7--|--------------------------|
C#||-------|--7--7--7--7--7--7--7--7--|--7--7--7--7--7--7--7--7--|
G#||-------|--5--5--5--5--5--5--5--5--|--7--7--7--7--7--7--7--7--|
D#||-------|--------------------------|--5--5--5--5--5--5--5--5--|


  E  E  E  E  E  E  E  E     E  E  E  E  E  E  E  E   
--------------------------|--------------------------|
--------------------------|--------------------------|
--------------------------|--------------------------|
--2--2--2--2--2--2--2--2--|--2--2--2--2--2--2--2--2--|
--2--2--2--2--2--2--2--2--|--2--2--2--2--2--2--2--2--|
--0--0--0--0--0--0--0--0--|--0--0--0--0--0--0--0--0--|


  E  E  E  E  E  E  E  E     E  E  E  E  E  E  E  E   
--------------------------|--------------------------|
--------------------------|--------------------------|
--7--7--7--7--7--7--7--7--|--------------------------|
--7--7--7--7--7--7--7--7--|--7--7--7--7--7--7--7--7--|
--5--5--5--5--5--5--5--5--|--7--7--7--7--7--7--7--7--|
--------------------------|--5--5--5--5--5--5--5--5--|


  E  E  E  E  E  E  E  E     E  E  E  E  E  E  E  E     H.           Q     
--------------------------|--------------------------|--------------------|
--------------------------|--------------------------|--------------------|
--------------------------|--------------------------|--------------------|
--2--2--2--2--2--2--2--2--|--2--2--2--2--2--2--2--2--|--7-----------------|
--2--2--2--2--2--2--2--2--|--2--2--2--2--2--2--2--2--|--5-----------------|
--0--0--0--0--0--0--0--0--|--0--0--0--0--0--0--0--0--|--------------------|


                                            E  E  E  E  E  E  E  E   
-----|-----|-----|-----|-----|-----|-----|--------------------------|
-----|-----|-----|-----|-----|-----|-----|--------------------------|
-----|-----|-----|-----|-----|-----|-----|--7--7--7--7--7--7--7--7--|
-----|-----|-----|-----|-----|-----|-----|--7--7--7--7--7--7--7--7--|
-----|-----|-----|-----|-----|-----|-----|--5--5--5--5--5--5--5--5--|
-----|-----|-----|-----|-----|-----|-----|--------------------------|


  E  E  E  E  E  E  E  E     E  E  E  E  E  E  E  E   
--------------------------|--------------------------|
--------------------------|--------------------------|
--------------------------|--9--9--9--9--9--9--9--9--|
--7--7--7--7--7--7--7--7--|--9--9--9--9--9--9--9--9--|
--7--7--7--7--7--7--7--7--|--7--7--7--7--7--7--7--7--|
--5--5--5--5--5--5--5--5--|--0--0--0--0--0--0--0--0--|


  E  E  E  E  E  E  E  E     W                   W                 
--------------------------|--2----------------|-------------------|
--------------------------|--3----------------|--2----------------|
--9--9--9--9--9--9--9--9--|--2----------------|--2----------------|
--9--9--9--9--9--9--9--9--|--0----------------|--2----------------|
--7--7--7--7--7--7--7--7--|-------------------|--0----------------|
--0--0--0--0--0--0--0--0--|-------------------|-------------------|


  W                   W                   W                   W                 
-------------------|-------------------|--2----------------|-------------------|
--2----------------|-------------------|--3----------------|--2----------------|
--2----------------|--1----------------|--2----------------|--2----------------|
--4----------------|--2----------------|--0----------------|--2----------------|
--4----------------|--2----------------|-------------------|--0----------------|
--2----------------|--0----------------|-------------------|-------------------|


  W                   W                   E  E  E  E  E  E  E  E   
-------------------|-------------------|--------------------------|
--2----------------|-------------------|--------------------------|
--2----------------|--1----------------|--7--7--7--7--7--7--7--7--|
--4----------------|--2----------------|--7--7--7--7--7--7--7--7--|
--4----------------|--2----------------|--5--5--5--5--5--5--5--5--|
--2----------------|--0----------------|--------------------------|


  E  E  E  E  E  E  E  E     E  E  E  E  E  E  E  E   
--------------------------|--------------------------|
--------------------------|--------------------------|
--------------------------|--------------------------|
--7--7--7--7--7--7--7--7--|--2--2--2--2--2--2--2--2--|
--7--7--7--7--7--7--7--7--|--2--2--2--2--2--2--2--2--|
--5--5--5--5--5--5--5--5--|--0--0--0--0--0--0--0--0--|


  E  E  E  E  E  E  E  E     E  E  E  E  E  E  E  E   
--------------------------|--------------------------|
--------------------------|--------------------------|
--------------------------|--7--7--7--7--7--7--7--7--|
--2--2--2--2--2--2--2--2--|--7--7--7--7--7--7--7--7--|
--2--2--2--2--2--2--2--2--|--5--5--5--5--5--5--5--5--|
--0--0--0--0--0--0--0--0--|--------------------------|


  E  E  E  E  E  E  E  E     E  E  E  E  E  E  E  E   
--------------------------|--------------------------|
--------------------------|--------------------------|
--------------------------|--------------------------|
--7--7--7--7--7--7--7--7--|--2--2--2--2--2--2--2--2--|
--7--7--7--7--7--7--7--7--|--2--2--2--2--2--2--2--2--|
--5--5--5--5--5--5--5--5--|--0--0--0--0--0--0--0--0--|


  E  E  E  E  E  E  E  E     H.           Q                                   
--------------------------|--------------------|-----|-----|-----|-----|-----|
--------------------------|--------------------|-----|-----|-----|-----|-----|
--------------------------|--------------------|-----|-----|-----|-----|-----|
--2--2--2--2--2--2--2--2--|--7-----------------|-----|-----|-----|-----|-----|
--2--2--2--2--2--2--2--2--|--5-----------------|-----|-----|-----|-----|-----|
--0--0--0--0--0--0--0--0--|--------------------|-----|-----|-----|-----|-----|


              E  E  E  E  E  E  E  E     E  E  E  E  E  E  E  E   
-----|-----|--------------------------|--------------------------|
-----|-----|--------------------------|--------------------------|
-----|-----|--7--7--7--7--7--7--7--7--|--------------------------|
-----|-----|--7--7--7--7--7--7--7--7--|--7--7--7--7--7--7--7--7--|
-----|-----|--5--5--5--5--5--5--5--5--|--7--7--7--7--7--7--7--7--|
-----|-----|--------------------------|--5--5--5--5--5--5--5--5--|


  E  E  E  E  E  E  E  E     E  E  E  E  E  E  E  E     W                 
--------------------------|--------------------------|--2----------------|
--------------------------|--------------------------|--3----------------|
--9--9--9--9--9--9--9--9--|--9--9--9--9--9--9--9--9--|--2----------------|
--9--9--9--9--9--9--9--9--|--9--9--9--9--9--9--9--9--|--0----------------|
--7--7--7--7--7--7--7--7--|--7--7--7--7--7--7--7--7--|-------------------|
--0--0--0--0--0--0--0--0--|--0--0--0--0--0--0--0--0--|-------------------|


  W                   W                   W                   W                 
-------------------|-------------------|-------------------|--2----------------|
--2----------------|--2----------------|-------------------|--3----------------|
--2----------------|--2----------------|--1----------------|--2----------------|
--2----------------|--4----------------|--2----------------|--0----------------|
--0----------------|--4----------------|--2----------------|-------------------|
-------------------|--2----------------|--0----------------|-------------------|


  W                   W                   W                 
-------------------|-------------------|-------------------|
--2----------------|--2----------------|-------------------|
--2----------------|--2----------------|--1----------------|
--2----------------|--4----------------|--2----------------|
--0----------------|--4----------------|--2----------------|
-------------------|--2----------------|--0----------------|


  E  E  E  E  E  E  E  E     Q    E  E  E  E  E  E     E  E  E  E  E  E  E  E   
--2--2--2--2--2--2--2--2--|-------------------------|--------------------------|
--3--3--3--3--3--3--3--3--|-------------------------|--------------------------|
--2--2--2--2--2--2--2--2--|--2----2--2--2--2--2--2--|--------------------------|
--0--0--0--0--0--0--0--0--|--2----2--2--2--2--2--2--|--2--2--2--2--2--2--2--2--|
--------------------------|--0----0--0--0--0--0--0--|--2--2--2--2--2--2--2--2--|
--------------------------|-------------------------|--0--0--0--0--0--0--0--0--|


  E  E  E  E  E  E  E  E     E  E  E  E  E  E  E  E     Q    E  E  E  E  E  E   
--------------------------|--2--2--2--2--2--2--2--2--|-------------------------|
--------------------------|--3--3--3--3--3--3--3--3--|-------------------------|
--------------------------|--2--2--2--2--2--2--2--2--|--2----2--2--2--2--2--2--|
--2--2--2--2--2--2--2--2--|--0--0--0--0--0--0--0--0--|--2----2--2--2--2--2--2--|
--2--2--2--2--2--2--2--2--|--------------------------|--0----0--0--0--0--0--0--|
--0--0--0--0--0--0--0--0--|--------------------------|-------------------------|


  E  E  E  E  E  E  E  E     E  E  E  E  E  E  E  E     W                 
--------------------------|--------------------------|--2----------------|
--------------------------|--------------------------|--3----------------|
--------------------------|--------------------------|--2----------------|
--2--2--2--2--2--2--2--2--|--2--2--2--2--2--2--2--2--|--0----------------|
--2--2--2--2--2--2--2--2--|--2--2--2--2--2--2--2--2--|--0----------------|
--0--0--0--0--0--0--0--0--|--0--0--0--0--0--0--0--0--|-------------------|


  W                   W                   W                   W                 
-------------------|--2----------------|-------------------|--2----------------|
--2----------------|--2----------------|-------------------|--3----------------|
--2----------------|--2----------------|-------------------|--2----------------|
--2----------------|--4----------------|--2----------------|--0----------------|
--0----------------|--4----------------|--2----------------|--0----------------|
-------------------|-------------------|--0----------------|-------------------|


  W                   W                   W                   W                 
-------------------|--2----------------|-------------------|--2----------------|
--2----------------|--2----------------|-------------------|--3----------------|
--2----------------|--2----------------|-------------------|--2----------------|
--2----------------|--4----------------|--2----------------|--0----------------|
--0----------------|--4----------------|--2----------------|--0----------------|
-------------------|-------------------|--0----------------|-------------------|


  W                   W                   W                   W                 
-------------------|--2----------------|-------------------|--2----------------|
--2----------------|--2----------------|-------------------|--3----------------|
--2----------------|--2----------------|-------------------|--2----------------|
--2----------------|--4----------------|--2----------------|--0----------------|
--0----------------|--4----------------|--2----------------|--0----------------|
-------------------|-------------------|--0----------------|-------------------|


  W                   W                   W                   W                 
-------------------|--2----------------|-------------------|--2----------------|
--2----------------|--2----------------|-------------------|--3----------------|
--2----------------|--2----------------|-------------------|--2----------------|
--2----------------|--4----------------|-------------------|--0----------------|
--0----------------|--4----------------|-------------------|-------------------|
-------------------|-------------------|-------------------|-------------------|


  W                   W                   W                   W                 
-------------------|-------------------|-------------------|--2----------------|
--2----------------|--2----------------|-------------------|--3----------------|
--2----------------|--2----------------|--1----------------|--2----------------|
--2----------------|--4----------------|--2----------------|--0----------------|
--0----------------|--4----------------|--2----------------|-------------------|
-------------------|--2----------------|--0----------------|-------------------|


  W                   W                   W                 
-------------------|-------------------|-------------------|
--2----------------|--2----------------|-------------------|
--2----------------|--2----------------|--1----------------|
--2----------------|--4----------------|--2----------------|
--0----------------|--4----------------|--2----------------|
-------------------|--2----------------|--0----------------|


  E  E  E  E  E  E  E  E     E  E  E  E  E  E  E  E   
--------------------------|--------------------------|
--------------------------|--------------------------|
--7--7--7--7--7--7--7--7--|--------------------------|
--7--7--7--7--7--7--7--7--|--7--7--7--7--7--7--7--7--|
--5--5--5--5--5--5--5--5--|--7--7--7--7--7--7--7--7--|
--------------------------|--5--5--5--5--5--5--5--5--|


  E  E  E  E  E  E  E  E     E  E  E  E  E  E  E  E   
--------------------------|--------------------------|
--------------------------|--------------------------|
--------------------------|--------------------------|
--2--2--2--2--2--2--2--2--|--2--2--2--2--2--2--2--2--|
--2--2--2--2--2--2--2--2--|--2--2--2--2--2--2--2--2--|
--0--0--0--0--0--0--0--0--|--0--0--0--0--0--0--0--0--|


  E  E  E  E  E  E  E  E     E  E  E  E  E  E  E  E   
--------------------------|--------------------------|
--------------------------|--------------------------|
--7--7--7--7--7--7--7--7--|--------------------------|
--7--7--7--7--7--7--7--7--|--7--7--7--7--7--7--7--7--|
--5--5--5--5--5--5--5--5--|--7--7--7--7--7--7--7--7--|
--------------------------|--5--5--5--5--5--5--5--5--|


  E  E  E  E  E  E  E  E     E  E  E  E  E  E  E  E   
--------------------------|--------------------------|
--------------------------|--------------------------|
--------------------------|--------------------------|
--2--2--2--2--2--2--2--2--|--2--2--2--2--2--2--2--2--|
--2--2--2--2--2--2--2--2--|--2--2--2--2--2--2--2--2--|
--0--0--0--0--0--0--0--0--|--0--0--0--0--0--0--0--0--|


  E  E  E  E  E  E  E  E     E  E  E  E  E  E  E  E   
--------------------------|--------------------------|
--------------------------|--------------------------|
--7--7--7--7--7--7--7--7--|--------------------------|
--7--7--7--7--7--7--7--7--|--7--7--7--7--7--7--7--7--|
--5--5--5--5--5--5--5--5--|--7--7--7--7--7--7--7--7--|
--------------------------|--5--5--5--5--5--5--5--5--|


  E  E  E  E  E  E  E  E     E  E  E  E  E  E  E  E   
--------------------------|--------------------------|
--------------------------|--------------------------|
--------------------------|--------------------------|
--2--2--2--2--2--2--2--2--|--2--2--2--2--2--2--2--2--|
--2--2--2--2--2--2--2--2--|--2--2--2--2--2--2--2--2--|
--0--0--0--0--0--0--0--0--|--0--0--0--0--0--0--0--0--|


  E  E  E  E  E  E  E  E     E  E  E  E  E  E  E  E     W                 
--------------------------|--------------------------|-------------------|
--------------------------|--------------------------|-------------------|
--7--7--7--7--7--7--7--7--|--------------------------|-------------------|
--7--7--7--7--7--7--7--7--|--7--7--7--7--7--7--7--7--|--2----------------|
--5--5--5--5--5--5--5--5--|--7--7--7--7--7--7--7--7--|--2----------------|
--------------------------|--5--5--5--5--5--5--5--5--|--0----------------|


  W                  
-------------------||
-------------------||
-------------------||
--L----------------||
--L----------------||
--L----------------||




=============================================================================



Guitar 2



               E   E   E   E   E   E   E   E   
D#||-------|----------------------------------|
A#||-------|--15--15--15--15--15--17--15--14--|
F#||-------|----------------------------------|
C#||-------|----------------------------------|
G#||-------|----------------------------------|
D#||-------|----------------------------------|


   E   E   E   E   E   E   E   E      E   E   E   E   E   E   E   E   
----------------------------------|----------------------------------|
--14--14--14--14--14--15--14--12--|--12--12--12--12--12--14--12--10--|
----------------------------------|----------------------------------|
----------------------------------|----------------------------------|
----------------------------------|----------------------------------|
----------------------------------|----------------------------------|


   E   E   E   E   E   E   E   E      E   E   E   E   E   E   E   E   
----------------------------------|----------------------------------|
--12--12--12--12--15--14--12------|--15--15--15--15--15--17--15--14--|
------------------------------14--|----------------------------------|
----------------------------------|----------------------------------|
----------------------------------|----------------------------------|
----------------------------------|----------------------------------|


   E   E   E   E   E   E   E   E      E   E   E   E   E   E   E   E   
----------------------------------|----------------------------------|
--14--14--14--14--14--15--14--12--|--12--12--12--12--12--14--12--10--|
----------------------------------|----------------------------------|
----------------------------------|----------------------------------|
----------------------------------|----------------------------------|
----------------------------------|----------------------------------|


   E   E   E   E   E   E   E   E      W                                         
----------------------------------|--------------------|-------|-------|-------|
--12--12--12--12--15--14--12------|--------------------|-------|-------|-------|
------------------------------14--|--14----------------|-------|-------|-------|
----------------------------------|--------------------|-------|-------|-------|
----------------------------------|--------------------|-------|-------|-------|
----------------------------------|--------------------|-------|-------|-------|


                                   E   E   E   E   E   E   E   E   
-------|-------|-------|-------|----------------------------------|
-------|-------|-------|-------|--15--15--15--15--15--17--15--14--|
-------|-------|-------|-------|----------------------------------|
-------|-------|-------|-------|----------------------------------|
-------|-------|-------|-------|----------------------------------|
-------|-------|-------|-------|----------------------------------|


   E   E   E   E   E   E   E   E      W                 
----------------------------------|--------------------|
--14--14--14--14--14--15--14--12--|--12----------------|
----------------------------------|--------------------|
----------------------------------|--------------------|
----------------------------------|--------------------|
----------------------------------|--------------------|


   Q.      Q.      Q        W                                                 
------------------12----|--------------------|-------|-------|-------|-------|
--12------14------------|--15----------------|-------|-------|-------|-------|
------------------------|--------------------|-------|-------|-------|-------|
------------------------|--------------------|-------|-------|-------|-------|
------------------------|--------------------|-------|-------|-------|-------|
------------------------|--------------------|-------|-------|-------|-------|


                           E   E   E   E   E   E   E   E   
-------|-------|-------|----------------------------------|
-------|-------|-------|--15--15--15--15--15--17--15--14--|
-------|-------|-------|----------------------------------|
-------|-------|-------|----------------------------------|
-------|-------|-------|----------------------------------|
-------|-------|-------|----------------------------------|


   E   E   E   E   E   E   E   E      E   E   E   E   E   E   E   E   
----------------------------------|----------------------------------|
--14--14--14--14--14--15--14--12--|--12--12--12--12--12--14--12--10--|
----------------------------------|----------------------------------|
----------------------------------|----------------------------------|
----------------------------------|----------------------------------|
----------------------------------|----------------------------------|


   E   E   E   E   E   E   E   E      E   E   E   E   E   E   E   E   
----------------------------------|----------------------------------|
--12--12--12--12--15--14--12------|--15--15--15--15--15--17--15--14--|
------------------------------14--|----------------------------------|
----------------------------------|----------------------------------|
----------------------------------|----------------------------------|
----------------------------------|----------------------------------|


   E   E   E   E   E   E   E   E      E   E   E   E   E   E   E   E   
----------------------------------|----------------------------------|
--14--14--14--14--14--15--14--12--|--12--12--12--12--12--14--12--10--|
----------------------------------|----------------------------------|
----------------------------------|----------------------------------|
----------------------------------|----------------------------------|
----------------------------------|----------------------------------|


   E   E   E   E   E   E   E   E      W                                         
----------------------------------|--------------------|-------|-------|-------|
--12--12--12--12--15--14--12------|--------------------|-------|-------|-------|
------------------------------14--|--14----------------|-------|-------|-------|
----------------------------------|--------------------|-------|-------|-------|
----------------------------------|--------------------|-------|-------|-------|
----------------------------------|--------------------|-------|-------|-------|


                                   E   E   E   E   E   E   E   E   
-------|-------|-------|-------|----------------------------------|
-------|-------|-------|-------|--15--15--15--15--15--17--15--14--|
-------|-------|-------|-------|----------------------------------|
-------|-------|-------|-------|----------------------------------|
-------|-------|-------|-------|----------------------------------|
-------|-------|-------|-------|----------------------------------|


   E   E   E   E   E   E   E   E      W                 
----------------------------------|--------------------|
--14--14--14--14--14--15--14--12--|--12----------------|
----------------------------------|--------------------|
----------------------------------|--------------------|
----------------------------------|--------------------|
----------------------------------|--------------------|


   Q.      Q.      Q        W                                                 
------------------12----|--------------------|-------|-------|-------|-------|
--12------14------------|--15----------------|-------|-------|-------|-------|
------------------------|--------------------|-------|-------|-------|-------|
------------------------|--------------------|-------|-------|-------|-------|
------------------------|--------------------|-------|-------|-------|-------|
------------------------|--------------------|-------|-------|-------|-------|


                          Q.        Q    Q.        Q.        Q    Q.      
-------|-------|-------|------------------------|------------------------|
-------|-------|-------|--9br-------------------|--9br-------------------|
-------|-------|-------|-----------11----9------|-----------11----9------|
-------|-------|-------|------------------------|------------------------|
-------|-------|-------|------------------------|------------------------|
-------|-------|-------|------------------------|------------------------|


  E   E   E   E   E   E   E   E       E   E   E   E   E   E   E   E   
----------------------------------|----------------------------------|
----------------------------------|--12--12--12--12--12--12--12--12--|
--9~--9~--9~--9~--9~--9~--9~--9~--|---9---9---9---9---9---9---9---9--|
----------------------------------|----------------------------------|
----------------------------------|----------------------------------|
----------------------------------|----------------------------------|


  Q.        Q    Q.        Q.        Q    Q.        E  E  E  E  E  E  E  E   
------------------------|------------------------|--------------------------|
--9br-------------------|--9br-------------------|--9--9--9--9--9--9--9--9--|
-----------11----9------|-----------11----9------|--------------------------|
------------------------|------------------------|--------------------------|
------------------------|------------------------|--------------------------|
------------------------|------------------------|--------------------------|


   E  E   E  E   E   E   E   E     W                   W                       
--12-----12-----12--12--12--12--|-------------------|-------------------|-----|
---9--9---9--9---9---9---9---9--|--7----------------|--5----------------|-----|
--------------------------------|-------------------|-------------------|-----|
--------------------------------|-------------------|-------------------|-----|
--------------------------------|-------------------|-------------------|-----|
--------------------------------|-------------------|-------------------|-----|


-------|-------|-------|-------|-------|-------|-------|-------|-------|-------|
-------|-------|-------|-------|-------|-------|-------|-------|-------|-------|
-------|-------|-------|-------|-------|-------|-------|-------|-------|-------|
-------|-------|-------|-------|-------|-------|-------|-------|-------|-------|
-------|-------|-------|-------|-------|-------|-------|-------|-------|-------|
-------|-------|-------|-------|-------|-------|-------|-------|-------|-------|


-------|-------|-------|-------------------|-------|-------|-------|-------|
-------|-------|-------|-------------------|-------|-------|-------|-------|
-------|-------|-------|-------------------|-------|-------|-------|-------|
-------|-------|-------|-------------------|-------|-------|-------|-------|
-------|-------|-------|-------------------|-------|-------|-------|-------|
-------|-------|-------|-------------------|-------|-------|-------|-------|


                           E   E   E   E   E   E   E   E   
-------|-------|-------|----------------------------------|
-------|-------|-------|--15--15--15--15--15--17--15--14--|
-------|-------|-------|----------------------------------|
-------|-------|-------|----------------------------------|
-------|-------|-------|----------------------------------|
-------|-------|-------|----------------------------------|


   E   E   E   E   E   E   E   E      E   E   E   E   E   E   E   E   
----------------------------------|----------------------------------|
--14--14--14--14--14--15--14--12--|--12--12--12--12--12--14--12------|
----------------------------------|------------------------------14--|
----------------------------------|----------------------------------|
----------------------------------|----------------------------------|
----------------------------------|----------------------------------|


   E   E   E   E   E   E   E   E      E   E   E   E   E   E   E   E   
----------------------------------|----------------------------------|
--12--12--12--12--15--14--12------|--15--15--15--15--15--17--15--14--|
------------------------------14--|----------------------------------|
----------------------------------|----------------------------------|
----------------------------------|----------------------------------|
----------------------------------|----------------------------------|


   E   E   E   E   E   E   E   E      E   E   E   E   E   E   E   E   
----------------------------------|----------------------------------|
--14--14--14--14--14--15--14--12--|--12--12--12--12--12--14--12------|
----------------------------------|------------------------------14--|
----------------------------------|----------------------------------|
----------------------------------|----------------------------------|
----------------------------------|----------------------------------|


   E   E   E   E   E   E   E   E      E   E   E   E   E   E   E   E   
----------------------------------|----------------------------------|
--12--12--12--12--15--14--12------|--15--15--15--15--15--17--15--14--|
------------------------------14--|----------------------------------|
----------------------------------|----------------------------------|
----------------------------------|----------------------------------|
----------------------------------|----------------------------------|


   E   E   E   E   E   E   E   E      E   E   E   E   E   E   E   E   
----------------------------------|----------------------------------|
--14--14--14--14--14--15--14--12--|--12--12--12--12--12--14--12------|
----------------------------------|------------------------------14--|
----------------------------------|----------------------------------|
----------------------------------|----------------------------------|
----------------------------------|----------------------------------|


   E   E   E   E   E   E   E   E      E   E   E   E   E   E   E   E   
----------------------------------|----------------------------------|
--12--12--12--12--15--14--12------|--15--15--15--15--15--17--15--14--|
------------------------------14--|----------------------------------|
----------------------------------|----------------------------------|
----------------------------------|----------------------------------|
----------------------------------|----------------------------------|


   E   E   E   E   E   E   E   E      W                                      
----------------------------------|--------------------|-------------------||
--14--14--14--14--14--15--14--12--|--12----------------|-------------------||
----------------------------------|--------------------|-------------------||
----------------------------------|--------------------|-------------------||
----------------------------------|--------------------|-------------------||
----------------------------------|--------------------|-------------------||




Duration Legend
---------------
W - whole
H - half
Q - quarter
E - 8th
S - 16th
T - 32nd
X - 64th
. - note dotted
|-n-|  - n-tuplets


Tablature Legend
----------------
L - tied note
x - dead note
g - grace note
(n) - ghost note
> - accentuded note
NH - natural harmonic
AH - artificial harmonic
TH - tapped harmonic
SH - semi harmonic
PH - pitch harmonic
h - hammer on
p - pull off
b - bend
br - bendRelease
pb - preBend
pbr - preBendRelease
brb - bendReleaseBend
\n/ - tremolo bar dip
\n - tremolo bar dive
-/n - tremolo bar Release up
/n\ - tremolo bar inverted dip
/n - tremolo bar return
-\n - tremolo bar Release down
S - shift slide
s - legato slide
/ -  slide into from below or out of upwards
\ -  slide into from above or out of downwards
~ - vibrato
W - wide vibrato
tr - trill
TP - tremolo picking
T - tapping
S - slap
P - pop
< - fade in
^ - brush up
v - brush down

Tap to rate this tab
# A B C D E F G H I J K L M N O P Q R S T U V W X Y Z