Song name
# A B C D E F G H I J K L M N O P Q R S T U V W X Y Z

Collective Soul - Fuzzy tab

-----------------------------------------------------------------------------
			     2. Fuzzy
-----------------------------------------------------------------------------

Tuning:Eb

Intro: 0:00


e|--------------------------|---------------------------------------------|
B|--------------------------|---------------------------------------------|
G|------------------5-6-5-6-|---------------------------------------------|
D|-----8------------5-6-5-6-|---8-----------3-----------------------------|x4
A|-----8--x12-------7-8-7-8-|---8---x12-----3------x4---------------------|
E|-----6--------------------|---6-----------1-----------------------------|

Pre-Chorus: 0:32

e|---------------------------|
B|---------------------------|
G|---6----------5-6-5-6------|
D|---6---x12----5-6-5-6------|
A|---8----------7-8-7-8------|
E|---------------------------|

e|--------------------|
B|--------------------|
G|---6----------------|
D|---6----x19---------|
A|---8----------------|
E|--------------------|

Chorus: 0:40

e|--------------------------------------------------------------------------|
B|--------------------------------------------------------------------------|
G|--------------------6-----------------------------------------------------|
D|---6----------------6---x16------6--------------3-------------------------|
A|---6---x16----------8------------6----x16-------3---x16-------------------|
E|---8-----------------------------8--------------1-------------------------|

Verse 2: 0:56

Verse x2

Pre-Chorus 2: 1:19

Pre Chorus x1

Chorus 2: 1:28

Chorus x4

Bridge: 2:00
e|------------------------------------------------------------------------|
B|------------------------------------------------------------------------|
G|-------------------6----------------------------------------------------|
D|-----8-------------6---x16------6-------------3-------------------------|x2
A|-----6---x16-------8------------6---x16-------3---x16-------------------|
E|-----8--------------------------8-------------1-------------------------|


Verse 3: 2:32

Verse x2


Pre-Chorus 3: 2:48

Pre-chorus x2


Chorus 3:

Chorus x4


Outro: 3:28

Verse x2

End on this: (let ring)

e|--------------------------------------------------------------------------|
B|--------------------------------------------------------------------------|
G|--------------------------------------------------------------------------|
D|----8---------------------------------------------------------------------|
A|----8---------------------------------------------------------------------|
E|----6---------------------------------------------------------------------|



End of song
Tap to rate this tab
 
# A B C D E F G H I J K L M N O P Q R S T U V W X Y Z