Song name
# A B C D E F G H I J K L M N O P Q R S T U V W X Y Z

Collective Soul - Welcome All Again tab

-------------------------------------------------------------------------------
			     1. Welcome All Again
-------------------------------------------------------------------------------

Tuning:Eb

Intro: 0:00
With echo and reverb



Gtr 1
e|------------------------------------------------------------------------|
B|------------------------------------------------------------------------|
G|------------------------------------------------------------------------|x1
D|------------------------------------------------------------------------|
A|-0-------12--0-0--12----------------------0-------------12--0-0--12----0|
E|------------------------------------------------------------------------|

Starts at 0:26

Gtr 1
e|--------------------|
B|--------------------|
G|--------------------|
D|--------------------|x6
A|---12--0-0--12------|
E|--------------------|

Gtr 2 plays this at the start of every 12--0-0--12-| in the intro
e|-------------------------------------------------|
B|-------------------------------------------------|
G|-------------------------------------------------|
D|-------------------------------------------------|x6
A|---0---------------------------------------------|
E|-------------------------------------------------|

Verse: 0:53

e|------------------------------------------------------------------------|
B|------------------------------------------------------------------------|
G|------------------------------------------------------------------------|
D|------------------------------------------------------------------4-----|x4
A|---12-0-0-12-0-12-0-12-0-0-12-0-12-0-12-0-0-12-0-12-0---4-5-5-5---5-5-5-|
E|------------------------------------------------------------------------|

Pre-Chorus: 1:12

e|---------------|
B|--2-2-2--------|
G|--2-2-2--------|
D|--2-2-2--------|x6
A|--0-0-0--------|
E|---------3b----|

at the end of the 3rd time rest for 1 measure and play the pre-chorus 3 more times

Then after the pre-chorus play this
1:20
e|-x-x-x-x-x-x-x-x-|
B|-x-x-x-x-x-x-x-x-|
G|-x-x-x-x-x-x-x-x-|
D|-x-x-x-x-x-x-x-x-|x1
A|-x-x-x-x-x-x-x-x-|
E|-x-x-x-x-x-x-x-x-|

Chorus: 1:21
       G         D
e|-----3---------2--------|-----------------------------------------------|
B|-----3---------3--------|--14--14-14-15-14-14-17-14-14-15-14-15-14-14---|
G|-----0---------2--------|--14--14-14-14-14-14-14-14-14-14-14-14-14-14---|
D|-----0------------------|--14--14-14-14-14-14-14-14-14-14-14-14-14-14---|x2
A|-----2------------------|-----------------------------------------------|
E|-----3------------------|-----------------------------------------------|
 and then
       G          D
e|-----3----------2----------|
B|-----3----------3----------|
G|-----0----------2----------|
D|-----0---------------------|x1
A|-----2---------------------|
E|-----3---------------------|

Verse 2: 1:34

Verse x4

in the middle of the third and the fourth time you play the verse there is this cool 
lick that goes like this:

Gtr 1
e|----14--12-12-11-11b12br11-----|
B|-------------------------------|
G|-------------------------------|
D|-------------------------------|
A|-------------------------------|
E|-------------------------------|

Pre-Chorus 2: 1:52

Pre-Chorus x1
at the end of the 3rd time, rest for 1 measure and play the rest of the pre-chorus

Then after the pre-chorus play:
2:00
e|-x-x-x-x-x-x-x-x-|
B|-x-x-x-x-x-x-x-x-|
G|-x-x-x-x-x-x-x-x-|
D|-x-x-x-x-x-x-x-x-|x1
A|-x-x-x-x-x-x-x-x-|
E|-x-x-x-x-x-x-x-x-|

Chorus 2: 2:01

e|-----3---------2---------|---------------------------------------------|
B|-----3---------3---------|--14--14-14-15-14-14-17-14-14-15-14-15-14-14-|
G|-----0---------2---------|--14--14-14-14-14-14-14-14-14-14-14-14-14-14-|
D|-----0-------------------|--14--14-14-14-14-14-14-14-14-14-14-14-14-14-|x2
A|-----2-------------------|---------------------------------------------|
E|-----3-------------------|---------------------------------------------|
play  twice and then play G and D once more and it goes into the bridge


Bridge: 2:25

e|--------------------------------------------------------------------------|
B|-----7------8------9-7------8------9-7------8------9-7----8---------------|
G|--------------------------------------------------------------------------|
D|--------------------------------------------------------------------------|
A|--------------------------------------------------------------------------|
E|--------------------------------------------------------------------------|

e|------------------------------------------|
B|------------------------------------------|
G|---------6-----6----9------6-----6----11--|
D|-----5h7---5h7---------5h7---5h7----------|x2
A|------------------------------------------|
E|------------------------------------------|


Chorus 3: 3:01

Chorus x4

Outro: 3:32

Verse x4


End of Song
Tap to rate this tab
# A B C D E F G H I J K L M N O P Q R S T U V W X Y Z