Song name
# A B C D E F G H I J K L M N O P Q R S T U V W X Y Z

Collective Soul - Blame tab

Capo at the first fret

---2h4-------4------------------------0------0----0------0--|
------------0------2----0-----0------0---0-------0------0---|
--------------------------1-----1-h2-------2----------------|
---2-----2------2--2--2-----2-------------------------------|
------------------------------------------------------------|
-----------------------------------------------3------0-----|

Repeat

---4h7------7------------2---0-------0----------------------|
-----------0--------0--4--------0---------------------------|
------------------------------------------------------------|
------------------------------------------------------------|
---7-----7------7---2--------7-----7------------------------|
------------------------------------------------------------|

Repeat

------------5------5------5---------------------------------|
--------2-----5------5------5-------------------------------|
------2---2------2------2-----2-----------------------------|
------------------------------------------------------------|
----2-------------------------------------------------------|
------------------------------------------------------------|
Tap to rate this tab
# A B C D E F G H I J K L M N O P Q R S T U V W X Y Z