Song name
# A B C D E F G H I J K L M N O P Q R S T U V W X Y Z

Collective Soul - The World I Know tab

THE WORL I KNOW
~Collective Soul~
The only tab you will ever need
By JAGO


Intro / Verse
Guitars 1/2
e---------------------------------------|
B---------------------------------------|
G--77777--7\2--2-2222--44444-4-44/6--66-|
D--00000--0\0--0-0000--00000-0-00/0--00-|  X8
A--xxxxx--x\x--x-xxxx--xxxxx-x-xx/x--xx-|
E--77777--7\2--2-2222--33333-3-33/5--55-|



Gutar1
    A~~~~~~~~~~~~~~~~~~~~~~~~~~~~~~~~~~~~~~~G

~guitar 2~
---7------7------7------7------7------7-----8-7---8-7--|
-----10----10-----10-----10-----10-----10------8-----8-|
--------9-----9-------------9------9-------------------|
-------------------------------------------------------|
-------------------------------------------------------|
-------------------------------------------------------|
_______________________________________________________


e---------------------------------------|
B---------------------------------------|
G--77777--7\2--2-2222--44444-4-44/6--66-|
D--00000--0\0--0-0000--00000-0-00/0--00-|  X6
A--xxxxx--x\x--x-xxxx--xxxxx-x-xx/x--xx-|
E--77777--7\2--2-2222--33333-3-33/5--55-|

Gutar1
    a~~~~~~~~~~~~~~~~~~~~~~~~~~~~~~~~~~~~~~~~~G

~guitar 2~
---7------7------7------7------7------7-----8-7---8-7--|
-----10----10-----10-----10-----10-----10------8-----8-|
--------9-----9-------------9------9-------------------|
-------------------------------------------------------|
-------------------------------------------------------|
-------------------------------------------------------|


Both Guitars
D--------A------G------D--Dsus--A-------C-------G

guitar1
e---------------------------------------|
B---------------------------------------|
G--77777--7\2--2-2222--44444-4-44/6--66-|
D--00000--0\0--0-0000--00000-0-00/0--00-|  X4
A--xxxxx--x\x--x-xxxx--xxxxx-x-xx/x--xx-|
E--77777--7\2--2-2222--33333-3-33/5--55-|

guitar2
-h1--1---1---1/5--5--h7--7--7--7--7p5--0-|
---h20---0---0-0--0---0--0--0--0--0-0--0-|
-----------------------------------------|
-----------------------------------------|
-----------------------------------------|
-----------------------------------------|

Gutar1
    A~~~~~~~~~~~~~~~~~~~~~~~~~~~~~~~~~~~~~~~G

~guitar 2~
---7------7------7------7------7------7-----8-7---8-7--|
-----10----10-----10-----10-----10-----10------8-----8-|
--------9-----9-------------9------9-------------------|
-------------------------------------------------------|
-------------------------------------------------------|
-------------------------------------------------------|
_______________________________________________________



Both Guitars
D--------A------G------D--Dsus--A-------C-------G

D--------A------G------D--Dsus--A-------C-------G



e---------------------------------------|
B---------------------------------------|
G--77777--7\2--2-2222--44444-4-44/6--66-|
D--00000--0\0--0-0000--00000-0-00/0--00-|  X3
A--xxxxx--x\x--x-xxxx--xxxxx-x-xx/x--xx-|
E--77777--7\2--2-2222--33333-3-33/5--55-|

e------------------------|
B------------------------|
G--77777--7\2--2-2222--4-|
D--00000--0\0--0-0000--0-| end
A--xxxxx--x\x--x-xxxx--x-|
E--77777--7\2--2-2222--3-|




----17------17------17------17------17------17------17------17---|
--15--15--15--15--15--15--15------15--15--15--15--15--15--15--15-|
14------14------14------14------16------16------16------16-------|
-----------------------------------------------------------------| END
-----------------------------------------------------------------|
-----------------------------------------------------------------|

This is just laid out the way it should Be. I always wanted to add this. Thanks and enjoy...
If you have any comment add me up or message me on Facebook
I looked and Looked for this so i Finally said F**K it and did
it up myself let me know if you LIKE IT..

https://www.facebook.com/TatmanJAGO
Tap to rate this tab
 
# A B C D E F G H I J K L M N O P Q R S T U V W X Y Z