Song name
# A B C D E F G H I J K L M N O P Q R S T U V W X Y Z

Collective Soul - Smashing Young Man tab

-------------------------------------------------------------------------------
                             Smashing Young Man - Collective Soul
-----------------------------------------------------------------------------
Tabbed by:
E-mail:

Tuning: Drop C            main riff/intro

a|--------------|
d|--------------|
f|--------------|
c|--------------|
g|-0h3-333353---|
C|--------------|

a|--------------------------|
d|--------------------------|
f|--------------------------|   BRIDGE
c|-12-12-12-12-12-----------|
g|-10-10-10-10-10-----------|
C|--------------------------|           CHORUS PROGRESION
                          play as many times as needed
a|---------------|
d|---------------|
f|---------------|
c|--5------------|
g|--3-5--8--3----|
C-----5--8--3----|

******

| /   slide up
| \   slide down
| h   hammer-on
| p   pull-off
| ~   vibrato
| +   harmonic
| x   Mute note
| b   Bend
| pb  Pre-bend
| br  Bend release
| pbr Pre-bend release
| brb Bend release bend

************************************
Tap to rate this tab
# A B C D E F G H I J K L M N O P Q R S T U V W X Y Z