Guitaretab - guitar tabs
Song name
# A B C D E F G H I J K L M N O P Q R S T U V W X Y Z

Collective Soul - Heavens Already Here tab

#
Date: Tue, 23 Jan 1996 16:02:33 -0500
From: Pilgrim 
Subject: Heave's Already Here TAB

Collective Soul
Hints, Allegations, and Things Left Unsaid
Heaven's Already Here:

Transcribed by Khanh Tran
E-mail: pilgrim@computer.net
http://www.computer.net/~pilgrim/index.html

[intro riff] x4
------------------------------------------------
------------------------------------------------
----------------------------0-0-----------------
------------------------0h2---------------------
--------0h2--2--2h3--3--------------------------
-3--3-3-----------------------------------------

[verse 1]
G
Wake up to a new morning
C
Got my babe by my side
Am			    D
Now I won't yield to new warnings
	                     G
'Cause I got my piece of mind

[chorus]
D			 C
Who could bring me heaven 
			    G
When Heaven's already here

[fill 1] x2
---7------8-7------------------
-8---8--------10-8-------------
-------------------------------
-------------------------------
-------------------------------
-------------------------------

[chorus]

[verse 2]
G
No more living in darkness

[fill 2]
/7-5-7-3-----------------------
-------------------------------
-------------------------------
-------------------------------
-------------------------------
-------------------------------

C
Now that love lights my way

[fill 3]
/3-5-3-------------------------
-------5-----------------------
-------------------------------
-------------------------------
-------------------------------
-------------------------------

Am			   D	
I don't need any new changes

 Dsus4   		   Dsus4          G
------		To make me love today
||||||
------
|||.||
------
||||..
______


[fill 4]
-5-7--7b(8)-5------------------
--------------8----------------
-------------------------------
-------------------------------
-------------------------------
-------------------------------

[chorus]

[fill 1] x2

[chorus]

[fill 1] x2

[chorus]

[fill 1] x2

[chorus]

[intro riff] 

(end with downstrummed G chord)



-Pilgrim

Come and visit my Web Page at:
	http://www.computer.net/~pilgrim/index.html
***************************************************************************
*      "When you are courting a nice girl an hour seems like a second.    *
*   When you sit on a red hot cinder a second seems like an hour.         *
*   That's relativity."                    - Albert Einstein              *
***************************************************************************
[ Tab from: http://www.guitaretab.com/c/collective-soul/3810.html ]
Related for Heavens Already Here tab
Heavens Already Here chords by Collective Soul