Song name
# A B C D E F G H I J K L M N O P Q R S T U V W X Y Z

Collective Soul - Simple tab

  Here's the tab for Simple, a very solid song off a very solid record. Some of the 
may be a little off, so listen to get it right, but the notes should be correct.

Regular tuning.


INTRO

|----------------------------------------------------------|
|----------------------------------------------------------|
|----------------------------------------------------------|
|-----------------------------------------------------5----|
|-----7p0---5p0-7p5p0-----5-------7p0---5p0-7p5p0----------|
|-0-0-----7-----------5h7-----0-0-----7-----------5h7------|

|----------------------------------------------------------|
|----------------------------------------------------------|
|----------------------------------------------------------|
|-----------------------------------------------------5----|
|-----7p0---5p0-7p5p0-----5------7p0---5p0-7p5p0-----------|
|-0-0-----7------------5h7----0-0------7----------5h7------|

FIRST VERSE

Tangle up your twisted mind it's simple
|----------------------------------------------------------|
|----------------------------------------------------------|
|----------------------------------------------------------|
|-----------------------------------------------------5----|
|-----7p0---5p0-7p5p0-----5------7p0---5p0-7p5p0-----------|
|-0-0-----7------------5h7----0-0------7----------5h7------|


Mesmerize your every day it's simple
|----------------------------------------------------------|
|----------------------------------------------------------|
|----------------------------------------------------------|
|-----------------------------------------------------5----|
|-----7p0---5p0-7p5p0-----5------7p0---5p0-7p5p0-----------|
|-0-0-----7------------5h7----0-0------7----------5h7------|


PRE-CHORUS

Hey hey, can't you see        love is all that you should need
|-----------------------------------------------------------|
|-----------------------------------------------------------|
|-----------------------------------------------------------|
|------------------------------------------------------5----|
|-----7p0---5p0-7p5p0-7p5---------7p0---5p0-7p5p0-----------|
|-0-0-----7---------------5---0-0------7-----------5h7------|


Hey hey, can't you see
|------------------------------------------------------------|
|------------------------------------------------------------|
|------------------------------------------------------------|
|------------------------------------------------------------|
|-----7p0---5p0-7p5p0-----5------7p0---5p0-7p5p0-------------|
|-0-0-----7------------5h7----0-0------7----------7p0-5p0----|


CHORUS

Ease your troubled mind   let love seek and let love find
|-----------------        ------------------|
|-----------------        ------------------|
|-----------------        ------------------|
|-5-5-5-5-5-5-5-5-        7-7-7-7-7-7-7-7---|
|-5-5-5-5-5-5-5-5-        7-7-7-7-7-7-7-7---|
|-3-3-3-3-3-3-3-3-        5-5-5-5-5-5-5-5---|


It's simple
|------------------------|
|------------------------|
|------------------------|
|-2-2-------------7-2----|
|-2-2-7p5p0-------7-2----|
|-0-0-------7p5p0-5-0----|


|-----------------|--------|
|-----------------|--------|
|-----------------|--------|
|-2-2-------------|-7-2----|
|-2-2-7p5p0-------|-7-2----|
|-0-0-------7p5p0-|-5-0----|


The chorus repeats with different words

Second verse is same notes as first verse, second pre-chorus is the same as the first, 
chorus is the same as the first.


BRIDGE

Simple words   Simple rhyme simple thoughts a simple mind
|----------------------------------------------|
|----------------------------------------------|
|-7--7--7-7-7----------------------------------|
|-7--7--7-7-7--7--7--7-7-7--2-2--2--2-2-2-2----|
|-5--5--5-5-5--7--7--7-7-7--2-2--2--2-2-2-2----|
|--------------5--5--5-5-5--0-0--0--0-0-0-0----|

simple ways    simple shoulds simple chains simply put
|----------------------|--------------------|------|
|----------------------|--------------------|------|
|-7--7--7-7-7----------|--------------------|------|
|-7--7--7-7-7--7--7--7-|-7-7--2-2--2--2-2-2-|-2----|
|-5--5--5-5-5--7--7--7-|-7-7--2-2--2--2-2-2-|-2----|
|--------------5--5--5-|-5-5--0-0--0--0-0-0-|-0----|

simple wrongs simple rights  a simple world  simplified
|--------     -------        -------         -------|
|--------     -------        -------         -------|
|-7-7-7--     -------        -------         -------|
|-7-7-7--     7-7-7--        5-5-5--         -2-2-2-|
|-5-5-5--     7-7-7--        5-5-5--         -2-2-2-|
|--------     5-5-5--        3-3-3--         -0-0-0-|


BRIDGE (PART 2)
------------------------------|
------------------------------|
------------------------------|
------------------------------|
-----7p0---5-------7p0---5----|
-0-0-----7-----0-0-----7------|

Repeat Bridge Part 2 for a while, and he sings over it, then go back to the chorus.

Comment on the song with any suggestions.
Tap to rate this tab
# A B C D E F G H I J K L M N O P Q R S T U V W X Y Z