Song name
# A B C D E F G H I J K L M N O P Q R S T U V W X Y Z

Collective Soul - Where The River Flows tab

Collective Soul - Where The River Flows

NOTE:This is not the way Collective Soul plays this song.  I tabbed it this way because 
saves time for tuning and still sounds pretty good.  Those who dont like de-tuning the 
to drop c and want to learn this song can play it this way in standard.

PM=Palm Mute

STANDARD TUNING

Main Riff
e:------------------------------------------------------------------|
B:------------------------------------------------------------------|
G:------------------------------------------------------------------|
D:------------------------------------------------------------------|
A:--3--x--3-5-3-6--x--3-5-3-6--6------------------------------------|
E:--3--x--3-5-3-6--x--3-5-3-6--6------------------------------------|

Verse 1
e:------------------------------------------------------------------|
B:------------------------------------------------------------------|
G:------------------------------------------------------------------|
D:------------------------------------------------------------------|
A:--8-8-8-8-8-8-8-8-8-8-8-8-8-8-8-8-8-8-8-8-8-8-8-8-8-8-8-8-8-8-8-8-|
E:--8-8-8-8-8-8-8-8-8-8-8-8-8-8-8-8-8-8-8-8-8-8-8-8-8-8-8-8-8-8-8-8-|
PM  . . . . . . . . . . . . . . . . . . . . . . . . . . . . . . . .

Verse 2
e:--------------------------------------------------------------------|
B:--------------------------------------------------------------------|
G:--------------------------------------------------------------------|
D:--------------------------------------------------------------------|
A:--10-10-10-10-10-10-10-10-10-10-10-10-10-10-10-10-------------------|
E:--10-10-10-10-10-10-10-10-10-10-10-10-10-10-10-10-------------------|x2
PM  .  .  .  .  .  .  .  .  .  .  .  .  .  .  .  .

e:--------------------------------------------------------------------|
B:--------------------------------------------------------------------|
G:--------------------------------------------------------------------|
D:--------------------------------------------------------------------|
A:--8-8-8-8-8-8-8-8-8-8-8-8-8-8-8-8-----------------------------------|
E:--8-8-8-8-8-8-8-8-8-8-8-8-8-8-8-8-----------------------------------|
PM  . . . . . . . . . . . . . . . .

Solo:
e:--------------------------------------------------------------------|
B:--------------------------------------------------------------------|
G:--------------------------------------------------------------------|
D:----------------------------5---------------------------------------|
A:--5-3-3-3-3-3-3-5-3-6-3-5-3---3-------------------------------------|
E:--------------------------------------------------------------------|(x4)

e:--------------------------------------------------------------------|
B:--------------------------------------------------------------------|
G:----------------------------5---------------------------------------|
D:--5-3-3-3-3-3-3-5-3-6-3-5-3---3-------------------------------------|
A:--------------------------------------------------------------------|
E:--------------------------------------------------------------------|(x2)

e:--------------------------------------------------------------------|
B:--------------------------------------------------------------------|
G:--------------------------------------------------------------------|
D:----------------------------5---------------------------------------|
A:--5-3-3-3-3-3-3-5-3-6-3-5-3---3-------------------------------------|
E:--------------------------------------------------------------------|(X2)
(This is picked fast alternatly but its not necessarly tremelo picking)
Tap to rate this tab
# A B C D E F G H I J K L M N O P Q R S T U V W X Y Z