Song name
# A B C D E F G H I J K L M N O P Q R S T U V W X Y Z

Collective Soul - New Vibration tab

-----------------------------------------------------------------------------
                                  
          New Vibration - Collective Soul (GUITAR)
            
-----------------------------------------------------------------------------
Tabbed by: Scotto10

Tuning: standard tuning on a bartone guitar for the rhthym. The solo was 
played in the studio on a six string guitar. It is played live on a seven 
string guitar. I have added a six string guitar for the solo and for a "fake" 
way to get by if you don't have a 7 string guitar. The notes on the riff are 
correct, just an octave higher. The rhthym guitar chords are an approximation 
on how best to play it without 7 strings. Collective Soul has three guitarists 
but on this song they play it with only two live.

=============================================================================  

Guitar 1 ( 7 string guitar)




             E   E  E   E  E   E  E   E     E   E  E   E  E  E  E  E   
E||-------|------------------------------|----------------------------|
B||-------|------------------------------|----------------------------|
G||-------|------------------------------|----------------------------|
D||-------|------------------------------|----------------------x--x--|
A||-------|------------------------------|----------------------x--x--|
E||-------|---------5p--0----------------|---------5p--0--------x--x--|
B||-------|--6s--7---------3p--0--3p--0--|--6s--7---------3--5--------|


  E   E  E   E  E   E  E   E     E   E  E   E  E  E  E  E   
------------------------------|----------------------------|
------------------------------|----------------------------|
------------------------------|----------------------------|
------------------------------|----------------------x--x--|
------------------------------|----------------------x--x--|
---------5p--0----------------|---------5p--0--------x--x--|
--6s--7---------3p--0--3p--0--|--6s--7---------3--5--------|


  E   E  E   E  E   E  E   E     E   E  E   E  E  E  E  E   
------------------------------|----------------------------|
------------------------------|----------------------------|
------------------------------|----------------------------|
------------------------------|----------------------x--x--|
------------------------------|----------------------x--x--|
---------5p--0----------------|---------5p--0--------x--x--|
--6s--7---------3p--0--3p--0--|--6s--7---------3--5--------|


                                                    NH   NH   NH  
  E   E  E   E  E   E  E   E     E   E  E   E  E    E    E    E   
------------------------------|----------------------------------|
------------------------------|----------------------------------|
------------------------------|----------------------------------|
------------------------------|---------------------x----x----x--|
------------------------------|---------------------x----x----x--|
---------5p--0----------------|---------5p--0--------------------|
--6s--7---------3p--0--3p--0--|--6s--7---------3--<>3--<>3--<>3--|


  E  E  Q    H           W                   E  E  Q    H         
----------------------|-------------------|----------------------|
----------------------|-------------------|----------------------|
----------------------|-------------------|----------------------|
----------------------|-------------------|----------------------|
----------------------|-------------------|----------------------|
--5--5--5-------------|-------------------|--5--5--5-------------|
--3--3--3-------------|-------------------|--3--3--3-------------|


  W                   E   E  E   E  E   E  E   E     E   E  E   E  E  E  E  E   
-------------------|------------------------------|----------------------------|
-------------------|------------------------------|----------------------------|
-------------------|------------------------------|----------------------------|
-------------------|------------------------------|----------------------x--x--|
-------------------|------------------------------|----------------------x--x--|
-------------------|---------5p--0----------------|---------5p--0--------x--x--|
-------------------|--6s--7---------3p--0--3p--0--|--6s--7---------3--5--------|


                                                         NH   NH  
  E   E  E   E  E   E  E   E     E   E  E   E  E    E    E    E   
------------------------------|----------------------------------|
------------------------------|----------------------------------|
------------------------------|----------------------------------|
------------------------------|---------------------x----x----x--|
------------------------------|---------------------x----x----x--|
---------5p--0----------------|---------5p--0--------------------|
--6s--7---------3p--0--3p--0--|--6s--7---------3--<>3--<>3--<>3--|


  E  E  Q    H           W                   E  E  Q    H         
----------------------|-------------------|----------------------|
----------------------|-------------------|----------------------|
----------------------|-------------------|----------------------|
----------------------|-------------------|----------------------|
----------------------|-------------------|----------------------|
--5--5--5-------------|-------------------|--5--5--5-------------|
--3--3--3-------------|-------------------|--3--3--3-------------|


  W                   E   E  E   E  E   E  E   E     E   E  E   E  E  E  E  E   
-------------------|------------------------------|----------------------------|
-------------------|------------------------------|----------------------------|
-------------------|------------------------------|----------------------------|
-------------------|------------------------------|-------------------------x--|
-------------------|------------------------------|-------------------------x--|
-------------------|---------5p--0----------------|---------5p--0-----------x--|
-------------------|--6s--7---------3p--0--3p--0--|--6s--7---------3--5--------|


                                                    NH   NH   NH  
  E   E  E   E  E   E  E   E     E   E  E   E  E    E    E    E   
------------------------------|----------------------------------|
------------------------------|----------------------------------|
------------------------------|----------------------------------|
------------------------------|---------------------x----x----x--|
------------------------------|---------------------x----x----x--|
---------5p--0----------------|---------5p--0--------------------|
--6s--7---------3p--0--3p--0--|--6s--7---------3--<>3--<>3--<>3--|


  E  E  E  E  E  E  E  E     E  E  E  E  E  E  E  E   
--------------------------|--------------------------|
--------------------------|--------------------------|
--------------------------|--2--2--2--2--2--2--2--2--|
--------------------------|--2--2--2--2--2--2--2--2--|
--------------------------|--0--0--0--0--0--0--0--0--|
--5--5--5--5--5--5--5--5--|--------------------------|
--3--3--3--3--3--3--3--3--|--2--2--2--2--2--2--2--2--|


  E  E  E  E  E  E  E  E     E  E  E  E  E  E  E  E   
--------------------------|--------------------------|
--------------------------|--------------------------|
--------------------------|--------------------------|
--------------------------|--------------------------|
--------------------------|--5--5--5--5--5--5--5--5--|
--2--2--2--2--2--2--2--2--|--3--3--3--3--3--3--3--3--|
--0--0--0--0--0--0--0--0--|--------------------------|


  E  E  E  E  E  E  E  E     E  E  E  E  E  E  E  E   
--------------------------|--------------------------|
--------------------------|--------------------------|
--------------------------|--2--2--2--2--2--2--2--2--|
--------------------------|--2--2--2--2--2--2--2--2--|
--------------------------|--0--0--0--0--0--0--0--0--|
--5--5--5--5--5--5--5--5--|--------------------------|
--3--3--3--3--3--3--3--3--|--2--2--2--2--2--2--2--2--|


  E  E  E  E  E  E  E  E     E  E  E  E  E  E  E  E   
--------------------------|--------------------------|
--------------------------|--------------------------|
--------------------------|--------------------------|
--------------------------|--------------------------|
--------------------------|--5--5--5--5--5--5--5--5--|
--2--2--2--2--2--2--2--2--|--3--3--3--3--3--3--3--3--|
--0--0--0--0--0--0--0--0--|--------------------------|


  E   E  E   E  E   E  E   E     E   E  E   E  E  E  E  E   
------------------------------|----------------------------|
------------------------------|----------------------------|
------------------------------|----------------------------|
------------------------------|----------------------x--x--|
------------------------------|----------------------x--x--|
---------5p--0----------------|---------5p--0--------x--x--|
--6s--7---------3p--0--3p--0--|--6s--7---------3--5--------|


                                                    NH   NH   NH  
  E   E  E   E  E   E  E   E     E   E  E   E  E    E    E    E   
------------------------------|----------------------------------|
------------------------------|----------------------------------|
------------------------------|----------------------------------|
------------------------------|---------------------x----x----x--|
------------------------------|---------------------x----x----x--|
---------5p--0----------------|---------5p--0--------------------|
--6s--7---------3p--0--3p--0--|--6s--7---------3--<>3--<>3--<>3--|


  E  E  Q    H                               E  E  Q    H         
----------------------|-------------------|----------------------|
----------------------|-------------------|----------------------|
----------------------|-------------------|----------------------|
----------------------|-------------------|----------------------|
----------------------|-------------------|----------------------|
--5--5--5-------------|-------------------|--5--5--5-------------|
--3--3--3-------------|-------------------|--3--3--3-------------|


  W                   E   E  E   E  E   E  E   E     E   E  E   E  E  E  E  E   
-------------------|------------------------------|----------------------------|
-------------------|------------------------------|----------------------------|
-------------------|------------------------------|----------------------------|
-------------------|------------------------------|----------------------x--x--|
-------------------|------------------------------|----------------------x--x--|
-------------------|---------5p--0----------------|---------5p--0--------x--x--|
-------------------|--6s--7---------3p--0--3p--0--|--6s--7---------3--5--------|


                                                    NH   NH   NH  
  E   E  E   E  E   E  E   E     E   E  E   E  E    E    E    E   
------------------------------|----------------------------------|
------------------------------|----------------------------------|
------------------------------|----------------------------------|
------------------------------|---------------------x----x----x--|
------------------------------|---------------------x----x----x--|
---------5p--0----------------|---------5p--0--------------------|
--6s--7---------3p--0--3p--0--|--6s--7---------3--<>3--<>3--<>3--|


  E  E  Q    H           W                   E  E  Q    H         
----------------------|-------------------|----------------------|
----------------------|-------------------|----------------------|
----------------------|-------------------|----------------------|
----------------------|-------------------|----------------------|
----------------------|-------------------|----------------------|
--5--5--5-------------|-------------------|--5--5--5-------------|
--3--3--3-------------|-------------------|--3--3--3-------------|


  W                   E   E  E   E  E   E  E   E     E   E  E   E  E  E  E  E   
-------------------|------------------------------|----------------------------|
-------------------|------------------------------|----------------------------|
-------------------|------------------------------|----------------------------|
-------------------|------------------------------|-------------------------x--|
-------------------|------------------------------|-------------------------x--|
-------------------|---------5p--0----------------|---------5p--0-----------x--|
-------------------|--6s--7---------3p--0--3p--0--|--6s--7---------3--5--------|


                                                    NH   NH   NH  
  E   E  E   E  E   E  E   E     E   E  E   E  E    E    E    E   
------------------------------|----------------------------------|
------------------------------|----------------------------------|
------------------------------|----------------------------------|
------------------------------|---------------------x----x----x--|
------------------------------|---------------------x----x----x--|
---------5p--0----------------|---------5p--0--------------------|
--6s--7---------3p--0--3p--0--|--6s--7---------3--<>3--<>3--<>3--|


  E  E  E  E  E  E  E  E     E  E  E  E  E  E  E  E   
--------------------------|--------------------------|
--------------------------|--------------------------|
--------------------------|--2--2--2--2--2--2--2--2--|
--------------------------|--2--2--2--2--2--2--2--2--|
--------------------------|--0--0--0--0--0--0--0--0--|
--5--5--5--5--5--5--5--5--|--------------------------|
--3--3--3--3--3--3--3--3--|--2--2--2--2--2--2--2--2--|


  E  E  E  E  E  E  E  E     E  E  E  E  E  E  E  E   
--------------------------|--------------------------|
--------------------------|--------------------------|
--------------------------|--------------------------|
--------------------------|--------------------------|
--------------------------|--5--5--5--5--5--5--5--5--|
--2--2--2--2--2--2--2--2--|--3--3--3--3--3--3--3--3--|
--0--0--0--0--0--0--0--0--|--------------------------|


  E  E  E  E  E  E  E  E     E  E  E  E  E  E  E  E   
--------------------------|--------------------------|
--------------------------|--------------------------|
--------------------------|--2--2--2--2--2--2--2--2--|
--------------------------|--2--2--2--2--2--2--2--2--|
--------------------------|--0--0--0--0--0--0--0--0--|
--5--5--5--5--5--5--5--5--|--------------------------|
--3--3--3--3--3--3--3--3--|--2--2--2--2--2--2--2--2--|


  E  E  E  E  E  E  E  E     E  E  E  E  E  E  E  E   
--------------------------|--------------------------|
--------------------------|--------------------------|
--------------------------|--------------------------|
--------------------------|--------------------------|
--------------------------|--5--5--5--5--5--5--5--5--|
--2--2--2--2--2--2--2--2--|--3--3--3--3--3--3--3--3--|
--0--0--0--0--0--0--0--0--|--------------------------|


  E  E  E  E  E  E  E   E     E  E  E  E  E  E  E  E   
---------------------------|--------------------------|
--7-----7-----7--7--7s--8--|--5-----5-----5--5--5--8--|
---------------------------|--------------------------|
--4-----4-----4--4--4s--5--|--2-----2-----2--2--2--5--|
---------------------------|--------------------------|
---------------------------|--------------------------|
---------------------------|--------------------------|


  E  E  E  E  E  E  E  E     E  E  E  E  E  E  E  E   
--------------------------|--------------------------|
--7-----7-----7--7--7--8--|--5-----5-----5--5--5--8--|
--------------------------|--------------------------|
--4-----4-----4--4--4--5--|--2-----2-----2--2--2--5--|
--------------------------|--------------------------|
--------------------------|--------------------------|
--------------------------|--------------------------|


  E  E  E  E  E  E  E  E     E  E  E  E  E  E  E  E   
--------------------------|--------------------------|
--7-----7-----7--7--7--8--|--5-----5-----5--5--5--8--|
--------------------------|--------------------------|
--4-----4-----4--4--4--5--|--2-----2-----2--2--2--5--|
--------------------------|--------------------------|
--------------------------|--------------------------|
--------------------------|--------------------------|


  E  E  E  E  E  E  E  E     E  E  E  E  E  E  E  E   
--------------------------|--------------------------|
--7-----7-----7--7--7--8--|--5-----5-----5--5--5--8--|
--------------------------|--------------------------|
--4-----4-----4--4--4--5--|--2-----2-----2--2--2--5--|
--------------------------|--------------------------|
--------------------------|--------------------------|
--------------------------|--------------------------|


  E  E  E  E  E  E  E  E     E  E  E  E  E  E  E  E   
--------------------------|--------------------------|
--------------------------|--------------------------|
--------------------------|--------------------------|
--7--7--7--7--7--7--7--7--|--7--7--7--7--7--7--7--7--|
--5--5--5--5--5--5--5--5--|--4--4--4--4--4--4--4--4--|
--------------------------|--------------------------|
--------------------------|--------------------------|


  E  E  E  E  E  E  E  E     E  E  E  E  E  E  E  E   
--------------------------|--------------------------|
--------------------------|--------------------------|
--------------------------|--------------------------|
--4--4--4--4--4--4--4--4--|--------------------------|
--2--2--2--2--2--2--2--2--|--5--5--5--5--5--5--5--5--|
--------------------------|--3--3--3--3--3--3--3--3--|
--------------------------|--------------------------|


  E  E  E  E  E  E  E  E     E  E  E  E  E  E  E  E   
--------------------------|--------------------------|
--------------------------|--------------------------|
--------------------------|--------------------------|
--7--7--7--7--7--7--7--7--|--7--7--7--7--7--7--7--7--|
--5--5--5--5--5--5--5--5--|--4--4--4--4--4--4--4--4--|
--------------------------|--------------------------|
--------------------------|--------------------------|


  E  E  E  E  E  E  E  E     E  E  E  E  E  E  E  E   
--------------------------|--------------------------|
--------------------------|--------------------------|
--------------------------|--------------------------|
--4--4--4--4--4--4--4--4--|--------------------------|
--2--2--2--2--2--2--2--2--|--5--5--5--5--5--5--5--5--|
--------------------------|--3--3--3--3--3--3--3--3--|
--------------------------|--------------------------|


  E   E  E   E  E   E  E   E     E   E  E   E  E  E  E  E   
------------------------------|----------------------------|
------------------------------|----------------------------|
------------------------------|----------------------------|
------------------------------|----------------------x--x--|
------------------------------|----------------------x--x--|
---------5p--0----------------|---------5p--0--------x--x--|
--6s--7---------3p--0--3p--0--|--6s--7---------3--5--------|


  E   E  E   E  E   E  E   E     E   E  E   E  E  E  E  E   
------------------------------|----------------------------|
------------------------------|----------------------------|
------------------------------|----------------------------|
------------------------------|----------------------x--x--|
------------------------------|----------------------x--x--|
---------5p--0----------------|---------5p--0--------x--x--|
--6s--7---------3p--0--3p--0--|--6s--7---------3--5--------|


  E   E  E   E  E   E  E   E     E   E  E   E  E  E  E  E   
------------------------------|----------------------------|
------------------------------|----------------------------|
------------------------------|----------------------------|
------------------------------|----------------------x--x--|
------------------------------|----------------------x--x--|
---------5p--0----------------|---------5p--0--------x--x--|
--6s--7---------3p--0--3p--0--|--6s--7---------3--5--------|


  E   E  E   E  E   E  E   E     E   E  E   E  H         
------------------------------|-------------------------|
------------------------------|-------------------------|
------------------------------|-------------------------|
------------------------------|-------------------------|
------------------------------|-------------------------|
---------5p--0----------------|---------5p--0-----------|
--6s--7---------3p--0--3p--0--|--6s--7------------------|


  E  E  E  E  E  E  E  E     E  E  E  E  E  E  E  E   
--------------------------|--------------------------|
--------------------------|--------------------------|
--------------------------|--2--2--2--2--2--2--2--2--|
--------------------------|--2--2--2--2--2--2--2--2--|
--------------------------|--0--0--0--0--0--0--0--0--|
--5--5--5--5--5--5--5--5--|--------------------------|
--3--3--3--3--3--3--3--3--|--2--2--2--2--2--2--2--2--|


  E  E  E  E  E  E  E  E     E  E  E  E  E  E  E  E   
--------------------------|--------------------------|
--------------------------|--------------------------|
--------------------------|--------------------------|
--------------------------|--------------------------|
--------------------------|--5--5--5--5--5--5--5--5--|
--2--2--2--2--2--2--2--2--|--3--3--3--3--3--3--3--3--|
--0--0--0--0--0--0--0--0--|--------------------------|


  E  E  E  E  E  E  E  E     E  E  E  E  E  E  E  E   
--------------------------|--------------------------|
--------------------------|--------------------------|
--------------------------|--2--2--2--2--2--2--2--2--|
--------------------------|--2--2--2--2--2--2--2--2--|
--------------------------|--0--0--0--0--0--0--0--0--|
--5--5--5--5--5--5--5--5--|--------------------------|
--3--3--3--3--3--3--3--3--|--2--2--2--2--2--2--2--2--|


  E  E  E  E  E  E  E  E     E  E  E  E  E  E  E  E   
--------------------------|--------------------------|
--------------------------|--------------------------|
--------------------------|--------------------------|
--------------------------|--------------------------|
--------------------------|--5--5--5--5--5--5--5--5--|
--2--2--2--2--2--2--2--2--|--3--3--3--3--3--3--3--3--|
--0--0--0--0--0--0--0--0--|--------------------------|


  E  E  E  E  E  E  E   E     E  E  E  E  E  E  E   E   
---------------------------|---------------------------|
--7-----7-----7--7--7s--8--|--5-----5-----5--5--5s--8--|
---------------------------|---------------------------|
--4-----4-----4--4--4s--5--|--2-----2-----2--2--2s--5--|
---------------------------|---------------------------|
---------------------------|---------------------------|
---------------------------|---------------------------|


  E  E  E  E  E  E  E   E     E  E  E  E  E  E  E   E   
---------------------------|---------------------------|
--7-----7-----7--7--7s--8--|--5-----5-----5--5--5s--8--|
---------------------------|---------------------------|
--4-----4-----4--4--4s--5--|--2-----2-----2--2--2s--5--|
---------------------------|---------------------------|
---------------------------|---------------------------|
---------------------------|---------------------------|


  E  E  E  E  E  E  E   E     E  E  E  E  E  E  E   E   
---------------------------|---------------------------|
--7-----7-----7--7--7s--8--|--5-----5-----5--5--5s--8--|
---------------------------|---------------------------|
--4-----4-----4--4--4s--5--|--2-----2-----2--2--2s--5--|
---------------------------|---------------------------|
---------------------------|---------------------------|
---------------------------|---------------------------|


  E  E  E  E  E  E  E   E     E  E  E  E  E  E  E   E   
---------------------------|---------------------------|
--7-----7-----7--7--7s--8--|--5-----5-----5--5--5s--8--|
---------------------------|---------------------------|
--4-----4-----4--4--4s--5--|--2-----2-----2--2--2s--5--|
---------------------------|---------------------------|
---------------------------|---------------------------|
---------------------------|---------------------------|


  E  E  E  E  E  E  E  E     E  E  E  E  E  E  E  E   
--------------------------|--------------------------|
--------------------------|--------------------------|
--------------------------|--------------------------|
--7--7--7--7--7--7--7--7--|--7--7--7--7--7--7--7--7--|
--5--5--5--5--5--5--5--5--|--4--4--4--4--4--4--4--4--|
--------------------------|--------------------------|
--------------------------|--------------------------|


  E  E  E  E  E  E  E  E     E  E  E  E  E  E  E  E   
--------------------------|--------------------------|
--------------------------|--------------------------|
--------------------------|--------------------------|
--4--4--4--4--4--4--4--4--|--------------------------|
--2--2--2--2--2--2--2--2--|--5--5--5--5--5--5--5--5--|
--------------------------|--3--3--3--3--3--3--3--3--|
--------------------------|--------------------------|


  E  E  E  E  E  E  E  E     E  E  E  E  E  E  E  E   
--------------------------|--------------------------|
--------------------------|--------------------------|
--------------------------|--------------------------|
--7--7--7--7--7--7--7--7--|--7--7--7--7--7--7--7--7--|
--5--5--5--5--5--5--5--5--|--4--4--4--4--4--4--4--4--|
--------------------------|--------------------------|
--------------------------|--------------------------|


  E  E  E  E  E  E  E  E     E  E  E  E  E  E  E  E   
--------------------------|--------------------------|
--------------------------|--------------------------|
--------------------------|--------------------------|
--4--4--4--4--4--4--4--4--|--------------------------|
--2--2--2--2--2--2--2--2--|--5--5--5--5--5--5--5--5--|
--------------------------|--3--3--3--3--3--3--3--3--|
--------------------------|--------------------------|


  E   E  E   E  E   E  E   E     E   E  E   E  E  E  E  E   
------------------------------|----------------------------|
------------------------------|----------------------------|
------------------------------|----------------------------|
------------------------------|----------------------x--x--|
------------------------------|----------------------x--x--|
---------5p--0----------------|---------5p--0--------x--x--|
--6s--7---------3p--0--3p--0--|--6s--7---------3--5--------|


                                                    NH   NH   NH  
  E   E  E   E  E   E  E   E     E   E  E   E  E    E    E    E   
------------------------------|----------------------------------|
------------------------------|----------------------------------|
------------------------------|----------------------------------|
------------------------------|---------------------x----x----x--|
------------------------------|---------------------x----x----x--|
---------5p--0----------------|---------5p--0--------------------|
--6s--7---------3p--0--3p--0--|--6s--7---------3--<>3--<>3--<>3--|


  E   E  E   E  E   E  E   E     E   E  E   E  E  E  E  E   
------------------------------|----------------------------|
------------------------------|----------------------------|
------------------------------|----------------------------|
------------------------------|----------------------x--x--|
------------------------------|----------------------x--x--|
---------5p--0----------------|---------5p--0--------x--x--|
--6s--7---------3p--0--3p--0--|--6s--7---------3--5--------|


  E   E  E   E  E   E  E   E     E   E  E   E  H          
------------------------------|-------------------------||
------------------------------|-------------------------||
------------------------------|-------------------------||
------------------------------|-------------------------||
------------------------------|-------------------------||
---------5p--0----------------|---------5p--0-----------||
--6s--7---------3p--0--3p--0--|--6s--7------------------||



=============================================================================  



Guitar 2

I transcribed all of this on a 7 string guitar but all of it can be played on 
a 6 string.



E||-------------------|-------------------|-------------------|
B||-------------------|-------------------|-------------------|
G||-------------------|-------------------|-------------------|
D||-------------------|-------------------|-------------------|
A||-------------------|-------------------|-------------------|
E||-------------------|-------------------|-------------------|
B||-------------------|-------------------|-------------------|


-------------------|-------------------|-------------------|-------------------|
-------------------|-------------------|-------------------|-------------------|
-------------------|-------------------|-------------------|-------------------|
-------------------|-------------------|-------------------|-------------------|
-------------------|-------------------|-------------------|-------------------|
-------------------|-------------------|-------------------|-------------------|
-------------------|-------------------|-------------------|-------------------|


-------------------|-------------------|-------------------|-------------------|
-------------------|-------------------|-------------------|-------------------|
-------------------|-------------------|-------------------|-------------------|
-------------------|-------------------|-------------------|-------------------|
-------------------|-------------------|-------------------|-------------------|
-------------------|-------------------|-------------------|-------------------|
-------------------|-------------------|-------------------|-------------------|


-------------------|-------------------|-------------------|-------------------|
-------------------|-------------------|-------------------|-------------------|
-------------------|-------------------|-------------------|-------------------|
-------------------|-------------------|-------------------|-------------------|
-------------------|-------------------|-------------------|-------------------|
-------------------|-------------------|-------------------|-------------------|
-------------------|-------------------|-------------------|-------------------|


-------------------|-------------------|-------------------|-------------------|
-------------------|-------------------|-------------------|-------------------|
-------------------|-------------------|-------------------|-------------------|
-------------------|-------------------|-------------------|-------------------|
-------------------|-------------------|-------------------|-------------------|
-------------------|-------------------|-------------------|-------------------|
-------------------|-------------------|-------------------|-------------------|


-------------------|-------------------|-------------------|-------------------|
-------------------|-------------------|-------------------|-------------------|
-------------------|-------------------|-------------------|-------------------|
-------------------|-------------------|-------------------|-------------------|
-------------------|-------------------|-------------------|-------------------|
-------------------|-------------------|-------------------|-------------------|
-------------------|-------------------|-------------------|-------------------|


                                           E   E   E   E   E   E   E   E   
-------------------|-------------------|--10--10--10--10--10--10--10--10--|
-------------------|-------------------|--10--10--10--10--10--10--10--10--|
-------------------|-------------------|--11--11--11--11--11--11--11--11--|
-------------------|-------------------|----------------------------------|
-------------------|-------------------|----------------------------------|
-------------------|-------------------|----------------------------------|
-------------------|-------------------|----------------------------------|


   E   E   E   E   E   E   E   E      E   E   E   E   E   E   E   E   
---9---9---9---9---9---9---9---9--|--10--10--10--10--10--10--10--10--|
--10--10--10--10--10--10--10--10--|--10--10--10--10--10--10--10--10--|
--11--11--11--11--11--11--11--11--|--11--11--11--11--11--11--11--11--|
----------------------------------|----------------------------------|
----------------------------------|----------------------------------|
----------------------------------|----------------------------------|
----------------------------------|----------------------------------|


  E  E  E  E  E  E  E  E      E   E   E   E   E   E   E   E   
--7--7--7--7--7--7--7--7--|--10--10--10--10--10--10--10--10--|
--8--8--8--8--8--8--8--8--|--10--10--10--10--10--10--10--10--|
--7--7--7--7--7--7--7--7--|--11--11--11--11--11--11--11--11--|
--------------------------|----------------------------------|
--------------------------|----------------------------------|
--------------------------|----------------------------------|
--------------------------|----------------------------------|


   E   E   E   E   E   E   E   E      E   E   E   E   E   E   E   E   
---9---9---9---9---9---9---9---9--|--10--10--10--10--10--10--10--10--|
--10--10--10--10--10--10--10--10--|--10--10--10--10--10--10--10--10--|
--11--11--11--11--11--11--11--11--|--11--11--11--11--11--11--11--11--|
----------------------------------|----------------------------------|
----------------------------------|----------------------------------|
----------------------------------|----------------------------------|
----------------------------------|----------------------------------|


  E  E  E  E  E  E  E  E                                           
--7--7--7--7--7--7--7--7--|-------------------|-------------------|
--8--8--8--8--8--8--8--8--|-------------------|-------------------|
--7--7--7--7--7--7--7--7--|-------------------|-------------------|
--------------------------|-------------------|-------------------|
--------------------------|-------------------|-------------------|
--------------------------|-------------------|-------------------|
--------------------------|-------------------|-------------------|


-------------------|-------------------|-------------------|-------------------|
-------------------|-------------------|-------------------|-------------------|
-------------------|-------------------|-------------------|-------------------|
-------------------|-------------------|-------------------|-------------------|
-------------------|-------------------|-------------------|-------------------|
-------------------|-------------------|-------------------|-------------------|
-------------------|-------------------|-------------------|-------------------|


-------------------|-------------------|
-------------------|-------------------|
-------------------|-------------------|
-------------------|-------------------|
-------------------|-------------------|
-------------------|-------------------|
-------------------|-------------------|


         Natural harmonic pitch "E"                                                 
         NH                     NH          NH  NH                              
  Q      S                      S E  Q      S   S E     Q     S  S E  H         
--------12---------------------12----------12--12----|-------12-12-------------|
-----------------------------------------------------|-------------------------|
-----------------------------------------------------|-------------------------|
-----------------------------------------------------|-------------------------|
-------<>3--------------------<>3---------<>3-<>3----|--------3--3-------------|
-----------------------------------------------------|-------------------------|
-----------------------------------------------------|-------------------------|


         Natural harmonic  pitch "E"                                                 
         NH                     NH          NH  NH                              
  Q      S                      S E  Q      S   S E     Q     S  S E  H         
--------12---------------------12----------12--12----|-------12-12-------------|
-----------------------------------------------------|-------------------------|
-----------------------------------------------------|-------------------------|
-----------------------------------------------------|-------------------------|
-------<>3--------------------<>3---------<>3-<>3----|--------3--3-------------|
-----------------------------------------------------|-------------------------|
-----------------------------------------------------|-------------------------|


-------------------|-------------------|-------------------|-------------------|
-------------------|-------------------|-------------------|-------------------|
-------------------|-------------------|-------------------|-------------------|
-------------------|-------------------|-------------------|-------------------|
-------------------|-------------------|-------------------|-------------------|
-------------------|-------------------|-------------------|-------------------|
-------------------|-------------------|-------------------|-------------------|


         Natural harm pitch "E"                                                 
         NH                     NH          NH  NH                              
  Q      S                      S E  Q      S   S E     Q     S  S E  H         
--------12---------------------12----------12--12----|-------12-12-------------|
-----------------------------------------------------|-------------------------|
-----------------------------------------------------|-------------------------|
-----------------------------------------------------|-------------------------|
-------<>3--------------------<>3---------<>3-<>3----|--------3--3-------------|
-----------------------------------------------------|-------------------------|
-----------------------------------------------------|-------------------------|


         Natural harm pitch "E"                                                 
         NH                     NH          NH  NH                              
  Q      S                      S E  Q      S   S E     Q     S  S E  H         
--------12---------------------12----------12--12----|-------12-12-------------|
-----------------------------------------------------|-------------------------|
-----------------------------------------------------|-------------------------|
-----------------------------------------------------|-------------------------|
-------<>3--------------------<>3---------<>3-<>3----|--------3--3-------------|
-----------------------------------------------------|-------------------------|
-----------------------------------------------------|-------------------------|


   E   E   E   E   E   E   E   E      E   E   E   E   E   E   E   E   
--10--10--10--10--10--10--10--10--|---9---9---9---9---9---9---9---9--|
--10--10--10--10--10--10--10--10--|--10--10--10--10--10--10--10--10--|
----------------------------------|----------------------------------|
----------------------------------|----------------------------------|
----------------------------------|----------------------------------|
----------------------------------|----------------------------------|
----------------------------------|----------------------------------|


   E   E   E   E   E   E   E   E     E  E  E  E  E  E  E  E   
--10--10--10--10--10--10--10--10--|--7--7--7--7--7--7--7--7--|
--10--10--10--10--10--10--10--10--|--8--8--8--8--8--8--8--8--|
----------------------------------|--------------------------|
----------------------------------|--------------------------|
----------------------------------|--------------------------|
----------------------------------|--------------------------|
----------------------------------|--------------------------|


   E   E   E   E   E   E   E   E      E   E   E   E   E   E   E   E   
--10--10--10--10--10--10--10--10--|---9---9---9---9---9---9---9---9--|
--10--10--10--10--10--10--10--10--|--10--10--10--10--10--10--10--10--|
----------------------------------|----------------------------------|
----------------------------------|----------------------------------|
----------------------------------|----------------------------------|
----------------------------------|----------------------------------|
----------------------------------|----------------------------------|


   E   E   E   E   E   E   E   E     E  E  E  E  E  E  E  E   
--10--10--10--10--10--10--10--10--|--7--7--7--7--7--7--7--7--|
--10--10--10--10--10--10--10--10--|--8--8--8--8--8--8--8--8--|
----------------------------------|--------------------------|
----------------------------------|--------------------------|
----------------------------------|--------------------------|
----------------------------------|--------------------------|
----------------------------------|--------------------------|


   E   E   E   E   E   E   E   E      E   E   E   E   E   E   E   E   
--10--10--10--10--10--10--10--10--|---9---9---9---9---9---9---9---9--|
--10--10--10--10--10--10--10--10--|--10--10--10--10--10--10--10--10--|
----------------------------------|----------------------------------|
----------------------------------|----------------------------------|
----------------------------------|----------------------------------|
----------------------------------|----------------------------------|
----------------------------------|----------------------------------|


   E   E   E   E   E   E   E   E     E  E  E  E  E  E  E  E   
--10--10--10--10--10--10--10--10--|--7--7--7--7--7--7--7--7--|
--10--10--10--10--10--10--10--10--|--8--8--8--8--8--8--8--8--|
----------------------------------|--------------------------|
----------------------------------|--------------------------|
----------------------------------|--------------------------|
----------------------------------|--------------------------|
----------------------------------|--------------------------|


   E   E   E   E   E   E   E   E      E   E   E   E   E   E   E   E   
--10--10--10--10--10--10--10--10--|---9---9---9---9---9---9---9---9--|
--10--10--10--10--10--10--10--10--|--10--10--10--10--10--10--10--10--|
----------------------------------|----------------------------------|
----------------------------------|----------------------------------|
----------------------------------|----------------------------------|
----------------------------------|----------------------------------|
----------------------------------|----------------------------------|


   E   E   E   E   E   E   E   E     E  E  E  E  E  E  E  E   
--10--10--10--10--10--10--10--10--|--7--7--7--7--7--7--7--7--|
--10--10--10--10--10--10--10--10--|--8--8--8--8--8--8--8--8--|
----------------------------------|--------------------------|
----------------------------------|--------------------------|
----------------------------------|--------------------------|
----------------------------------|--------------------------|
----------------------------------|--------------------------|


-------------------|-------------------|-------------------|-------------------|
-------------------|-------------------|-------------------|-------------------|
-------------------|-------------------|-------------------|-------------------|
-------------------|-------------------|-------------------|-------------------|
-------------------|-------------------|-------------------|-------------------|
-------------------|-------------------|-------------------|-------------------|
-------------------|-------------------|-------------------|-------------------|


-------------------|-------------------|-------------------|-------------------|
-------------------|-------------------|-------------------|-------------------|
-------------------|-------------------|-------------------|-------------------|
-------------------|-------------------|-------------------|-------------------|
-------------------|-------------------|-------------------|-------------------|
-------------------|-------------------|-------------------|-------------------|
-------------------|-------------------|-------------------|-------------------|


-------------------|-------------------|-------------------|-------------------|
-------------------|-------------------|-------------------|-------------------|
-------------------|-------------------|-------------------|-------------------|
-------------------|-------------------|-------------------|-------------------|
-------------------|-------------------|-------------------|-------------------|
-------------------|-------------------|-------------------|-------------------|
-------------------|-------------------|-------------------|-------------------|


-------------------|-------------------|-------------------|-------------------|
-------------------|-------------------|-------------------|-------------------|
-------------------|-------------------|-------------------|-------------------|
-------------------|-------------------|-------------------|-------------------|
-------------------|-------------------|-------------------|-------------------|
-------------------|-------------------|-------------------|-------------------|
-------------------|-------------------|-------------------|-------------------|


   E   E   E   E   E   E   E   E      E   E   E   E   E   E   E   E   
--10--10--10--10--10--10--10--10--|---9---9---9---9---9---9---9---9--|
--10--10--10--10--10--10--10--10--|--10--10--10--10--10--10--10--10--|
----------------------------------|----------------------------------|
----------------------------------|----------------------------------|
----------------------------------|----------------------------------|
----------------------------------|----------------------------------|
----------------------------------|----------------------------------|


   E   E   E   E   E   E   E   E     E  E  E  E  E  E  E  E   
--10--10--10--10--10--10--10--10--|--7--7--7--7--7--7--7--7--|
--10--10--10--10--10--10--10--10--|--8--8--8--8--8--8--8--8--|
----------------------------------|--------------------------|
----------------------------------|--------------------------|
----------------------------------|--------------------------|
----------------------------------|--------------------------|
----------------------------------|--------------------------|


   E   E   E   E   E   E   E   E      E   E   E   E   E   E   E   E   
--10--10--10--10--10--10--10--10--|---9---9---9---9---9---9---9---9--|
--10--10--10--10--10--10--10--10--|--10--10--10--10--10--10--10--10--|
----------------------------------|----------------------------------|
----------------------------------|----------------------------------|
----------------------------------|----------------------------------|
----------------------------------|----------------------------------|
----------------------------------|----------------------------------|


   E   E   E   E   E   E   E   E     E  E  E  E  E  E  E  E   
--10--10--10--10--10--10--10--10--|--7--7--7--7--7--7--7--7--|
--10--10--10--10--10--10--10--10--|--8--8--8--8--8--8--8--8--|
----------------------------------|--------------------------|
----------------------------------|--------------------------|
----------------------------------|--------------------------|
----------------------------------|--------------------------|
----------------------------------|--------------------------|


   E   E   E   E   E   E   E   E      E   E   E   E   E   E   E   E   
--10--10--10--10--10--10--10--10--|---9---9---9---9---9---9---9---9--|
--10--10--10--10--10--10--10--10--|--10--10--10--10--10--10--10--10--|
----------------------------------|----------------------------------|
----------------------------------|----------------------------------|
----------------------------------|----------------------------------|
----------------------------------|----------------------------------|
----------------------------------|----------------------------------|


   E   E   E   E   E   E   E   E     E  E  E  E  E  E  E  E   
--10--10--10--10--10--10--10--10--|--7--7--7--7--7--7--7--7--|
--10--10--10--10--10--10--10--10--|--8--8--8--8--8--8--8--8--|
----------------------------------|--------------------------|
----------------------------------|--------------------------|
----------------------------------|--------------------------|
----------------------------------|--------------------------|
----------------------------------|--------------------------|


   E   E   E   E   E   E   E   E      E   E   E   E   E   E   E   E   
--10--10--10--10--10--10--10--10--|---9---9---9---9---9---9---9---9--|
--10--10--10--10--10--10--10--10--|--10--10--10--10--10--10--10--10--|
----------------------------------|----------------------------------|
----------------------------------|----------------------------------|
----------------------------------|----------------------------------|
----------------------------------|----------------------------------|
----------------------------------|----------------------------------|


   E   E   E   E   E   E   E   E     E  E  E  E  E  E  E  E   
--10--10--10--10--10--10--10--10--|--7--7--7--7--7--7--7--7--|
--10--10--10--10--10--10--10--10--|--8--8--8--8--8--8--8--8--|
----------------------------------|--------------------------|
----------------------------------|--------------------------|
----------------------------------|--------------------------|
----------------------------------|--------------------------|
----------------------------------|--------------------------|


   E   E   E   E   E   E   E   E      E   E   E   E   E   E   E   E   
--10--10--10--10--10--10--10--10--|---9---9---9---9---9---9---9---9--|
--10--10--10--10--10--10--10--10--|--10--10--10--10--10--10--10--10--|
----------------------------------|----------------------------------|
----------------------------------|----------------------------------|
----------------------------------|----------------------------------|
----------------------------------|----------------------------------|
----------------------------------|----------------------------------|


   E   E   E   E   E   E   E   E     E  E  E  E  E  E  E  E   
--10--10--10--10--10--10--10--10--|--7--7--7--7--7--7--7--7--|
--10--10--10--10--10--10--10--10--|--8--8--8--8--8--8--8--8--|
----------------------------------|--------------------------|
----------------------------------|--------------------------|
----------------------------------|--------------------------|
----------------------------------|--------------------------|
----------------------------------|--------------------------|


   E   E   E   E   E   E   E   E      E   E   E   E   E   E   E   E   
--10--10--10--10--10--10--10--10--|---9---9---9---9---9---9---9---9--|
--10--10--10--10--10--10--10--10--|--10--10--10--10--10--10--10--10--|
----------------------------------|----------------------------------|
----------------------------------|----------------------------------|
----------------------------------|----------------------------------|
----------------------------------|----------------------------------|
----------------------------------|----------------------------------|


   E   E   E   E   E   E   E   E     E  E  E  E  E  E  E  E   
--10--10--10--10--10--10--10--10--|--7--7--7--7--7--7--7--7--|
--10--10--10--10--10--10--10--10--|--8--8--8--8--8--8--8--8--|
----------------------------------|--------------------------|
----------------------------------|--------------------------|
----------------------------------|--------------------------|
----------------------------------|--------------------------|
----------------------------------|--------------------------|



=============================================================================  

Guitar 3
This is transcribed on a six string. It may sound a little weird but that's 
but it was recorded on a baritone guitar. I have only put these chords in to 
get the best "flavor" of the chords that you can on a six string guitar.


E||-------|-------|-------|-------|-------|-------|-------|-------|-------|
B||-------|-------|-------|-------|-------|-------|-------|-------|-------|
G||-------|-------|-------|-------|-------|-------|-------|-------|-------|
D||-------|-------|-------|-------|-------|-------|-------|-------|-------|
A||-------|-------|-------|-------|-------|-------|-------|-------|-------|
E||-------|-------|-------|-------|-------|-------|-------|-------|-------|


  E  E  Q    H                   E  E  Q    H                                 
----------------------|-------|----------------------|-------|-------|-------|
----------------------|-------|----------------------|-------|-------|-------|
----------------------|-------|----------------------|-------|-------|-------|
----------------------|-------|----------------------|-------|-------|-------|
--5--5--5-------------|-------|--5--5--5-------------|-------|-------|-------|
--5--5--5-------------|-------|--5--5--5-------------|-------|-------|-------|


                  E  E  Q    H                   E  E  Q    H                 
-------|-------|----------------------|-------|----------------------|-------|
-------|-------|----------------------|-------|----------------------|-------|
-------|-------|----------------------|-------|----------------------|-------|
-------|-------|----------------------|-------|----------------------|-------|
-------|-------|--5--5--5-------------|-------|--5--5--5-------------|-------|
-------|-------|--5--5--5-------------|-------|--5--5--5-------------|-------|


                                  E  E  E  E  E  E  E  E   
-------|-------|-------|-------|--------------------------|
-------|-------|-------|-------|--------------------------|
-------|-------|-------|-------|--------------------------|
-------|-------|-------|-------|--------------------------|
-------|-------|-------|-------|--5--5--5--5--5--5--5--5--|
-------|-------|-------|-------|--5--5--5--5--5--5--5--5--|


  E  E  E  E  E  E  E  E     E  E  E  E  E  E  E  E   
--------------------------|--------------------------|
--------------------------|--------------------------|
--------------------------|--------------------------|
--------------------------|--------------------------|
--4--4--4--4--4--4--4--4--|--2--2--2--2--2--2--2--2--|
--5--5--5--5--5--5--5--5--|--2--2--2--2--2--2--2--2--|


  E  E  E  E  E  E  E  E     E  E  E  E  E  E  E  E   
--------------------------|--------------------------|
--------------------------|--------------------------|
--------------------------|--------------------------|
--------------------------|--------------------------|
--5--5--5--5--5--5--5--5--|--5--5--5--5--5--5--5--5--|
--3--3--3--3--3--3--3--3--|--5--5--5--5--5--5--5--5--|


  E  E  E  E  E  E  E  E     E  E  E  E  E  E  E  E   
--------------------------|--------------------------|
--------------------------|--------------------------|
--------------------------|--------------------------|
--------------------------|--------------------------|
--4--4--4--4--4--4--4--4--|--2--2--2--2--2--2--2--2--|
--5--5--5--5--5--5--5--5--|--2--2--2--2--2--2--2--2--|


  E  E  E  E  E  E  E  E     E   E  E  E  E   E  E   E   
--------------------------|-----------------------------|
--------------------------|-----------------------------|
--------------------------|---------2-------------------|
--------------------------|--3s--4-----2----------------|
--5--5--5--5--5--5--5--5--|---------------5p--2--5p--2--|
--3--3--3--3--3--3--3--3--|-----------------------------|


  E   E  E  E  E  E  E  E     E   E  E  E  E   E  E   E   
---------------------------|-----------------------------|
---------------------------|-----------------------------|
---------2-----------x--x--|---------2-------------------|
--3s--4-----2-----2--x--x--|--3s--4-----2----------------|
---------------5-----------|---------------5p--2--5p--2--|
---------------------------|-----------------------------|


  E   E  E  E  E  E  E  E     E  E  Q    H                 
---------------------------|----------------------|-------|
---------------------------|----------------------|-------|
---------2--------x--x--x--|----------------------|-------|
--3s--4-----2-----x--x--x--|----------------------|-------|
---------------5-----------|--5--5--5-------------|-------|
---------------------------|--5--5--5-------------|-------|


  E  E  Q    H                       E   E  E  E  E   E  E   E   
----------------------|-----------|-----------------------------|
----------------------|-----------|-----------------------------|
----------------------|-----------|---------2-------------------|
----------------------|-----------|--3s--4-----2----------------|
--5--5--5-------------|-----------|---------------5p--2--5p--2--|
--5--5--5-------------|-----------|-----------------------------|


  E   E  E  E  E  E  E  E     E   E  E  E  E   E  E   E   
---------------------------|-----------------------------|
---------------------------|-----------------------------|
---------2-----------x--x--|---------2-------------------|
--3s--4-----2-----2--x--x--|--3s--4-----2----------------|
---------------5-----------|---------------5p--2--5p--2--|
---------------------------|-----------------------------|


  E   E  E  E  E  E  E  E     E  E  Q    H                 
---------------------------|----------------------|-------|
---------------------------|----------------------|-------|
---------2-----------x--x--|----------------------|-------|
--3s--4-----2-----2--x--x--|----------------------|-------|
---------------5-----------|--5--5--5-------------|-------|
---------------------------|--5--5--5-------------|-------|


  E  E  Q    H                   E   E  E  E  E   E  E   E   
----------------------|-------|-----------------------------|
----------------------|-------|-----------------------------|
----------------------|-------|---------2-------------------|
----------------------|-------|--3s--4-----2----------------|
--5--5--5-------------|-------|---------------5p--2--5p--2--|
--5--5--5-------------|-------|-----------------------------|


  E   E  E  E  E  E  E  E     E   E  E  E  E   E  E   E   
---------------------------|-----------------------------|
---------------------------|-----------------------------|
---------2--------x--x--x--|---------2-------------------|
--3s--4-----2-----x--x--x--|--3s--4-----2----------------|
---------------5-----------|---------------5p--2--5p--2--|
---------------------------|-----------------------------|


  E   E  E  E  E  E  E  E     E  E  E  E  E  E  E  E   
---------------------------|--------------------------|
---------------------------|--------------------------|
---------2--------x--x--x--|--------------------------|
--3s--4-----2-----x--x--x--|--------------------------|
---------------5-----------|--5--5--5--5--5--5--5--5--|
---------------------------|--5--5--5--5--5--5--5--5--|


  E  E  E  E  E  E  E  E     E  E  E  E  E  E  E  E   
--------------------------|--------------------------|
--------------------------|--------------------------|
--------------------------|--------------------------|
--------------------------|--------------------------|
--4--4--4--4--4--4--4--4--|--2--2--2--2--2--2--2--2--|
--5--5--5--5--5--5--5--5--|--2--2--2--2--2--2--2--2--|


  E  E  E  E  E  E  E  E     E  E  E  E  E  E  E  E   
--------------------------|--------------------------|
--------------------------|--------------------------|
--------------------------|--------------------------|
--------------------------|--------------------------|
--5--5--5--5--5--5--5--5--|--5--5--5--5--5--5--5--5--|
--3--3--3--3--3--3--3--3--|--5--5--5--5--5--5--5--5--|


  E  E  E  E  E  E  E  E     E  E  E  E  E  E  E  E   
--------------------------|--------------------------|
--------------------------|--------------------------|
--------------------------|--------------------------|
--------------------------|--------------------------|
--4--4--4--4--4--4--4--4--|--2--2--2--2--2--2--2--2--|
--5--5--5--5--5--5--5--5--|--2--2--2--2--2--2--2--2--|


                             PM PM PM PM PM PM PM PM  
  E  E  E  E  E  E  E  E     E  E  E  E  E  E  E  E   
--------------------------|--------------------------|
--------------------------|--------------------------|
--------------------------|--------------------------|
--------------------------|--------------------------|
--5--5--5--5--5--5--5--5--|--5--5--5--5--5--5--5--5--|
--3--3--3--3--3--3--3--3--|--5--5--5--5--5--5--5--5--|


  PM PM PM PM PM PM PM PM    PM PM PM PM PM PM PM PM  
  E  E  E  E  E  E  E  E     E  E  E  E  E  E  E  E   
--------------------------|--------------------------|
--------------------------|--------------------------|
--------------------------|--------------------------|
--------------------------|--------------------------|
--4--4--4--4--4--4--4--4--|--2--2--2--2--2--2--2--2--|
--5--5--5--5--5--5--5--5--|--2--2--2--2--2--2--2--2--|


  PM PM PM PM PM PM PM PM                             
  E  E  E  E  E  E  E  E     E  E  E  E  E  E  E  E   
--------------------------|--------------------------|
--------------------------|--7-----7-----7--7--7--8--|
--------------------------|--------------------------|
--------------------------|--4-----4-----4--4--4--5--|
--5--5--5--5--5--5--5--5--|--------------------------|
--3--3--3--3--3--3--3--3--|--------------------------|


   E  E   E  E   E   E   E  E      E  E   E  E   E   E   E  E   
-------------------------------|-------------------------------|
--10-----10-----10--10--10-----|--12-----12-----12--12--12-----|
-------------------------------|-------------------------------|
---7------7------7---7---7-----|---9------9------9---9---9-----|
-------------------------------|-------------------------------|
-------------------------------|-------------------------------|


   E  E   E  E   E   E   E  E      E    E   E   E    E   E   E   E    
-------------------------------|-------------------------------------|
--15-----15-----15--15--15-----|--12s--10--10---L\--15--14--14---L\--|
-------------------------------|-------------------------------------|
--12-----12-----12--12--12-----|---9s---7---7---L\--12--11--11---L\--|
-------------------------------|-------------------------------------|
-------------------------------|-------------------------------------|


   E    E   E    E   H             E    E   E   E    E   E   E   E   
--15s--14--14s--12--14~--------|------------------------------------|
-------------------------------|--12s--10--10---L\--15--14--14------|
--12s--11--11s---9--11~--------|------------------------------------|
-------------------------------|---9s---7---7---L\--12--11--11--12--|
-------------------------------|------------------------------------|
-------------------------------|------------------------------------|


   E    E   E    E   E    E   E    E   
--------------------------------------|
--15s--17--17s--19--19s--20--20s--22--|
--------------------------------------|
--12s--14--14s--16--16s--17--17s--19--|
--------------------------------------|
--------------------------------------|


   S  S  S  S  S  S  S  S  S  S  S  S  S  S  S  S  
--------------------------------------------------|
--------------------------15----------------------|
--14-16-14-16-14-------------16-14-16-14----------|
-----------------16-17-16----------------16-17-16-|
--------------------------------------------------|
--------------------------------------------------|


                                                      TP    TP    TP    TP    
   S  S  S  S  S  S  S  S  S  S  S  S  S  S  S  S     Q     Q     Q     Q     
--14----------------------14----------------------|--------------------------|
-----15-14-15-14-------------15-14-15-14----------|--------------------17----|
-----------------14-16-14----------------14-16-14-|--16----18----19----------|
--------------------------------------------------|--------------------------|
--------------------------------------------------|--------------------------|
--------------------------------------------------|--------------------------|


   TP    TP    TP                                                           
   Q     Q     Q      Q         Q     H.                                    
----------------------------|----------------------|-------|-------|-------|
--19----20----22~----22~----|--22\-----------------|-------|-------|-------|
----------------------------|----------------------|-------|-------|-------|
----------------------------|----------------------|-------|-------|-------|
----------------------------|----------------------|-------|-------|-------|
----------------------------|----------------------|-------|-------|-------|


                                  E  E  E  E  E  E  E  E   
-------|-------|-------|-------|--------------------------|
-------|-------|-------|-------|--------------------------|
-------|-------|-------|-------|--------------------------|
-------|-------|-------|-------|--------------------------|
-------|-------|-------|-------|--5--5--5--5--5--5--5--5--|
-------|-------|-------|-------|--5--5--5--5--5--5--5--5--|


  E  E  E  E  E  E  E  E     E  E  E  E  E  E  E  E   
--------------------------|--------------------------|
--------------------------|--------------------------|
--------------------------|--------------------------|
--------------------------|--------------------------|
--4--4--4--4--4--4--4--4--|--2--2--2--2--2--2--2--2--|
--5--5--5--5--5--5--5--5--|--2--2--2--2--2--2--2--2--|


  E  E  E  E  E  E  E  E     E  E  E  E  E  E  E  E   
--------------------------|--------------------------|
--------------------------|--------------------------|
--------------------------|--------------------------|
--------------------------|--------------------------|
--5--5--5--5--5--5--5--5--|--5--5--5--5--5--5--5--5--|
--3--3--3--3--3--3--3--3--|--5--5--5--5--5--5--5--5--|


  E  E  E  E  E  E  E  E     E  E  E  E  E  E  E  E   
--------------------------|--------------------------|
--------------------------|--------------------------|
--------------------------|--------------------------|
--------------------------|--------------------------|
--4--4--4--4--4--4--4--4--|--2--2--2--2--2--2--2--2--|
--5--5--5--5--5--5--5--5--|--2--2--2--2--2--2--2--2--|


  E  E  E  E  E  E  E  E     E  E  E  E  E  E  E  E   
--------------------------|--------------------------|
--------------------------|--------------------------|
--------------------------|--------------------------|
--------------------------|--------------------------|
--5--5--5--5--5--5--5--5--|--5--5--5--5--5--5--5--5--|
--3--3--3--3--3--3--3--3--|--5--5--5--5--5--5--5--5--|


  E  E  E  E  E  E  E  E     E  E  E  E  E  E  E  E   
--------------------------|--------------------------|
--------------------------|--------------------------|
--------------------------|--------------------------|
--------------------------|--------------------------|
--4--4--4--4--4--4--4--4--|--2--2--2--2--2--2--2--2--|
--5--5--5--5--5--5--5--5--|--2--2--2--2--2--2--2--2--|


  E  E  E  E  E  E  E  E     E  E  E  E  E  E  E  E   
--------------------------|--------------------------|
--------------------------|--------------------------|
--------------------------|--------------------------|
--------------------------|--------------------------|
--5--5--5--5--5--5--5--5--|--5--5--5--5--5--5--5--5--|
--3--3--3--3--3--3--3--3--|--5--5--5--5--5--5--5--5--|


  E  E  E  E  E  E  E  E     E  E  E  E  E  E  E  E   
--------------------------|--------------------------|
--------------------------|--------------------------|
--------------------------|--------------------------|
--------------------------|--------------------------|
--4--4--4--4--4--4--4--4--|--2--2--2--2--2--2--2--2--|
--5--5--5--5--5--5--5--5--|--2--2--2--2--2--2--2--2--|


  E  E  E  E  E  E  E  E      S  S  S  S  S  S  S  S  S  S  S  S  S  S  S  S  
--------------------------|--------------------------------------------------|
--------------------------|--14-15-14-15-14----------14----------14-15-14-15-|
--------------------------|-----------------14----14----14----14-------------|
--------------------------|--------------------16----------16----------------|
--5--5--5--5--5--5--5--5--|--------------------------------------------------|
--3--3--3--3--3--3--3--3--|--------------------------------------------------|


   S  S  S  S  S  S  S  S  S  S  S  S  S  S  S  S  
--------------------------------------------------|
--14-15-14-15-14----------14----------14-15-14-15-|
-----------------14----14----14----14-------------|
--------------------16----------16----------------|
--------------------------------------------------|
--------------------------------------------------|


   S  S  S  S  S  S  S  S  S  S  S  S  S  S  S  S  
--------------------------------------------------|
--14-15-14-15-14----------14----------14-15-14-15-|
-----------------14----14----14----14-------------|
--------------------16----------16----------------|
--------------------------------------------------|
--------------------------------------------------|


   S  S  S  S  S  S  S  S  S  S  S  S  S  S  S  S  
--------------------------------------------------|
--14-15-14-15-14----------14----------14-15-14-15-|
-----------------14----14----14----14-------------|
--------------------16----------16----------------|
--------------------------------------------------|
--------------------------------------------------|


   S  S  S  S  S  S  S  S  S  S  S  S  S  S  S  S  
--------------------------------------------------|
--14-15-14-15-14----------14----------14-15-14-15-|
-----------------14----14----14----14-------------|
--------------------16----------16----------------|
--------------------------------------------------|
--------------------------------------------------|


   S  S  S  S  S  S  S  S  S  S  S  S  S  S  S  S  
--------------------------------------------------|
--14-15-14-15-14----------14----------14-15-14-15-|
-----------------14----14----14----14-------------|
--------------------16----------16----------------|
--------------------------------------------------|
--------------------------------------------------|


   S  S  S  S  S  S  S  S  S  S  S  S  S  S  S  S  
--------------------------------------------------|
--14-15-14-15-14----------14----------14-15-14-15-|
-----------------14----14----14----14-------------|
--------------------16----------16----------------|
--------------------------------------------------|
--------------------------------------------------|


   S  S  S  S  S  S  S  S  S  S  S  S  S  S  S  S    W                  
--------------------------------------------------|--------------------|
--14-15-14-15-14----------14----------14-15-14-15-|--7~----------------|
-----------------14----14----14----14-------------|--------------------|
--------------------16----------16----------------|--------------------|
--------------------------------------------------|--------------------|
--------------------------------------------------|--------------------|


  W                   W                                                 
-------------------|-------------------|-------|-------|-------|-------|
--L----------------|--L----------------|-------|-------|-------|-------|
-------------------|-------------------|-------|-------|-------|-------|
-------------------|-------------------|-------|-------|-------|-------|
-------------------|-------------------|-------|-------|-------|-------|
-------------------|-------------------|-------|-------|-------|-------|


-------||
-------||
-------||
-------||
-------||
-------||




Duration Legend
---------------
W - whole
H - half
Q - quarter
E - 8th
S - 16th
T - 32nd
X - 64th
. - note dotted
|-n-|  - n-tuplets


Tablature Legend
----------------
L - tied note
x - dead note
g - grace note
(n) - ghost note
> - accentuded note
NH - natural harmonic
AH - artificial harmonic
TH - tapped harmonic
SH - semi harmonic
PH - pitch harmonic
h - hammer on
p - pull off
b - bend
br - bendRelease
pb - preBend
pbr - preBendRelease
brb - bendReleaseBend
\n/ - tremolo bar dip
\n - tremolo bar dive
-/n - tremolo bar Release up
/n\ - tremolo bar inverted dip
/n - tremolo bar return
-\n - tremolo bar Release down
S - shift slide
s - legato slide
/ -  slide into from below or out of upwards
\ -  slide into from above or out of downwards
~ - vibrato
W - wide vibrato
tr - trill
TP - tremolo picking
T - tapping
S - slap
P - pop
< - fade in
^ - brush up
v - brush down
Tap to rate this tab
 
# A B C D E F G H I J K L M N O P Q R S T U V W X Y Z