Song name
# A B C D E F G H I J K L M N O P Q R S T U V W X Y Z

Collective Soul - Goodnight Good Guy tab

-----------------------------------------------------------------------------
                                  
          Goodnight, Good Guy - Collective Soul (GUITAR)
            
-----------------------------------------------------------------------------
Tabbed by: Scotto10

Tuning: standard tuning

============================================================================= 
 
Guitar 1



             >            >               >                          
     E  E  S E.   E  E  S E.      E  E  S E.   S S S  S  S  S  S  S  
E||----------------------------|------------------------------------|
B||----------------------------|------------------------------------|
G||----------------------------|------------------------------------|
D||--------6-7~---------6-7~---|--------6-7~------------------------|
A||--7--7---------7--7---------|--7--7-----------7-9p-0-12p-0-------|
E||--0--0---------0--0---------|--0--0------------------------14p-0-|


          >            >               >                          
  E  E  S E.   E  E  S E.      E  E  S E.   S S S  S  S  S  S  S  
----------------------------|------------------------------------|
----------------------------|------------------------------------|
----------------------------|------------------------------------|
--------6-7~---------6-7~---|--------6-7~------------------------|
--7--7---------7--7---------|--7--7-----------7-9p-0-12p-0-------|
--0--0---------0--0---------|--0--0------------------------14p-0-|


  E  E  E  E  E  E  E  E     E  E  E  E  E  E  E  E   
-----------0--L-----------|-----------0--L-----------|
--------0--------0--------|--------0--------0--------|
-----1--------------1-----|-----3--------------3-----|
--2--------------------2--|--4--------------------4--|
--------------------------|--------------------------|
--------------------------|--------------------------|


  E  E  E  E  E  E  E  E      E  E  E  E  E  E  E  E   
-----------0--L------------|-----------0--L-----------|
--------0--------0---------|--------0--------0--------|
-----6--------------6------|-----1--------------1-----|
--7--------------------7\--|--2--------------------2--|
---------------------------|--------------------------|
---------------------------|--------------------------|


  E  E  E  E  E  E  E  E     E  E  E  E  E  E  E  E   
-----------0--L-----------|-----------0--L-----------|
--------0--------0--------|--------0--------0--------|
-----1--------------1-----|-----3--------------3-----|
--2--------------------2--|--4--------------------4--|
--------------------------|--------------------------|
--------------------------|--------------------------|


  E  E  E  E  E  E  E  E     E  E  E  E  E  E  E  E   
-----------0--L-----------|-----------0--L-----------|
--------0--------0--------|--------0--------0--------|
-----6--------------6-----|-----1--------------1-----|
--7--------------------7--|--2--------------------2--|
--------------------------|--------------------------|
--------------------------|--------------------------|


  E  E  E  E  E  E  E  E     E  E  E  E  E  E  E  E   
-----------0--L-----------|-----------0--L-----------|
--------0--------0--------|--------0--------0--------|
-----6--------------6-----|-----8--------------8-----|
--7--------------------7--|--9--------------------9--|
--------------------------|--------------------------|
--------------------------|--------------------------|


  E  E  E  E  E  E  E  E     E  E  E  E  E  E  E  E   
-----------0--L-----------|-----------0--L--------0--|
--------0--------0--------|--------0-----------0-----|
-----6--------------6-----|-----8-----------8--------|
--7--------------------7--|--9-----------------------|
--------------------------|--------------------------|
--------------------------|--------------------------|


  E  E  E  E  E  E  E  E     Q    E  E  E  Q.        E  Q    S S E  E  E  E   
--0--------0--0--------0--|-----------------------|--------------------------|
--------0-----------0-----|-----------------------|--------------------------|
-----8-----------8--------|-----------------------|--6--6--------------------|
--------------------------|--2----2--2--9--9------|--6--6----7-7-7--7--7--7--|
--------------------------|--2----2--2--9--9------|--4--4----7-7-7--7--7--7--|
--------------------------|--0----0--0--7--7------|----------5-5-5--5--5--5--|


  E  Q    S S E  E  E  E     E  Q    S S E  E  E  E   
--------------------------|--------------------------|
--------------------------|--------------------------|
--------------------------|--6--6--------------------|
--2--2----2-2-2--2--2--2--|--6--6----7-7-7--7--7--7--|
--2--2----2-2-2--2--2--2--|--4--4----7-7-7--7--7--7--|
--0--0----0-0-0--0--0--0--|----------5-5-5--5--5--5--|


  E  Q    S S E  E  E  E     E  Q    S S E  E  E  E   
--------------------------|--------------------------|
--------------------------|--------------------------|
--------------------------|--6--6--------------------|
--2--2----2-2-9--9--9--9--|--6--6----7-7-7--7--7--7--|
--2--2----2-2-9--9--9--9--|--4--4----7-7-7--7--7--7--|
--0--0----0-0-7--7--7--7--|----------5-5-5--5--5--5--|


  E  E  E  E  E  E  E  E     E  E  E  E  E  E  E  E   
--------------------------|--------------------------|
--------------------------|--------------------------|
--------------------------|--------------------------|
--9--9--9--9--9--9--9--9--|--9--9--9--9--9--9--9--9--|
--9--9--9--9--9--9--9--9--|--9--9--9--9--9--9--9--9--|
--7--7--7--7--7--7--7--7--|--7--7--7--7--7--7--7--7--|


          >            >               >                          
  E  E  S E.   E  E  S E.      E  E  S E.   S S S  S  S  S  S  S  
----------------------------|------------------------------------|
----------------------------|------------------------------------|
----------------------------|------------------------------------|
--------6-7~---------6-7~---|--------6-7~------------------------|
--7--7---------7--7---------|--7--7-----------7-9p-0-12p-0-------|
--0--0---------0--0---------|--0--0------------------------14p-0-|


          >            >               >                          
  E  E  S E.   E  E  S E.      E  E  S E.   S S S  S  S  S  S  S  
----------------------------|------------------------------------|
----------------------------|------------------------------------|
----------------------------|------------------------------------|
--------6-7~---------6-7~---|--------6-7~------------------------|
--7--7---------7--7---------|--7--7-----------7-9p-0-12p-0-------|
--0--0---------0--0---------|--0--0------------------------14p-0-|


  E  E  E  E  E  E  E  E     E  E  E  E  E  E  E  E   
-----------0--L-----------|-----------0--L-----------|
--------0--------0--------|--------0--------0--------|
-----1--------------1-----|-----3--------------3-----|
--2--------------------2--|--4--------------------4--|
--------------------------|--------------------------|
--------------------------|--------------------------|


  E  E  E  E  E  E  E  E      E  E  E  E  E  E  E  E   
-----------0--L------------|-----------0--L-----------|
--------0--------0---------|--------0--------0--------|
-----6--------------6------|-----1--------------1-----|
--7--------------------7\--|--2--------------------2--|
---------------------------|--------------------------|
---------------------------|--------------------------|


  E  E  E  E  E  E  E  E     E  E  E  E  E  E  E  E   
-----------0--L-----------|-----------0--L-----------|
--------0--------0--------|--------0--------0--------|
-----1--------------1-----|-----3--------------3-----|
--2--------------------2--|--4--------------------4--|
--------------------------|--------------------------|
--------------------------|--------------------------|


  E  E  E  E  E  E  E  E     E  E  E  E  E  E  E  E   
-----------0--L-----------|-----------0--L-----------|
--------0--------0--------|--------0--------0--------|
-----6--------------6-----|-----1--------------1-----|
--7--------------------7--|--2--------------------2--|
--------------------------|--------------------------|
--------------------------|--------------------------|


  E  E  E  E  E  E  E  E     E  E  E  E  E  E  E  E   
-----------0--L-----------|-----------0--L-----------|
--------0--------0--------|--------0--------0--------|
-----6--------------6-----|-----8--------------8-----|
--7--------------------7--|--9--------------------9--|
--------------------------|--------------------------|
--------------------------|--------------------------|


  E  E  E  E  E  E  E  E     E  E  E  E  E  E  E  E   
-----------0--L-----------|-----------0--L--------0--|
--------0--------0--------|--------0-----------0-----|
-----6--------------6-----|-----8-----------8--------|
--7--------------------7--|--9-----------------------|
--------------------------|--------------------------|
--------------------------|--------------------------|


  E  E  E  E  E  E  E  E     Q    E  E  E  Q.        E  Q    S S E  E  E  E   
--0--------0--0--------0--|-----------------------|--------------------------|
--------0-----------0-----|-----------------------|--------------------------|
-----8-----------8--------|-----------------------|--6--6--------------------|
--------------------------|--2----2--2--9--9------|--6--6----7-7-7--7--7--7--|
--------------------------|--2----2--2--9--9------|--4--4----7-7-7--7--7--7--|
--------------------------|--0----0--0--7--7------|----------5-5-5--5--5--5--|


  E  Q    S S E  E  E  E     E  Q    S S E  E  E  E   
--------------------------|--------------------------|
--------------------------|--------------------------|
--------------------------|--6--6--------------------|
--2--2----2-2-2--2--2--2--|--6--6----7-7-7--7--7--7--|
--2--2----2-2-2--2--2--2--|--4--4----7-7-7--7--7--7--|
--0--0----0-0-0--0--0--0--|----------5-5-5--5--5--5--|


  E  Q    S S E  E  E  E     E  Q    S S E  E  E  E   
--------------------------|--------------------------|
--------------------------|--------------------------|
--------------------------|--6--6--------------------|
--2--2----2-2-9--9--9--9--|--6--6----7-7-7--7--7--7--|
--2--2----2-2-9--9--9--9--|--4--4----7-7-7--7--7--7--|
--0--0----0-0-7--7--7--7--|----------5-5-5--5--5--5--|


  E  E  E  E  E  E  E  E     E  E  E  E  E  E  E  E   
--------------------------|--------------------------|
--------------------------|--------------------------|
--------------------------|--------------------------|
--9--9--9--9--9--9--9--9--|--9--9--9--9--9--9--9--9--|
--9--9--9--9--9--9--9--9--|--9--9--9--9--9--9--9--9--|
--7--7--7--7--7--7--7--7--|--7--7--7--7--7--7--7--7--|


  H.           S  S    E     H.            S  S    E     H         H         
--------------------------|---------------------------|---------------------|
--------------------------|---------------------------|---------------------|
--2------------2b-Lpbr-L--|--1~------------1b-Lpbr-L--|--4~-----------------|
--------------------------|---------------------------|---------------------|
--------------------------|---------------------------|---------------------|
--------------------------|---------------------------|---------------------|


                         >                             >                      
  Q.     E  Q    Q       H         E  E  S  S    E     H.            S  S E   
----------------------|-----------------------------|------------------------|
--4------5--L----7----|-----------------------------|------------------------|
----------------------|--2~--------2--2--2b-Lpbr-L--|--1~------------1h-2-1--|
--1------2--L----4----|-----------------------------|------------------------|
----------------------|-----------------------------|------------------------|
----------------------|-----------------------------|------------------------|


  W                   H        E.   S   S   S   S   S  
-------------------|---------------12h-16p-12h-14p-12-|
-------------------|----------------------------------|
-------------------|----------------------------------|
-------------------|----------------------------------|
-------------------|----------------------------------|
-------------------|----------------------------------|


   >                                                                   
                        |---3---|                                      
   Q.       E    Q      E   E   E      Q.       E    Q     S   S   E   
-----------------------------------|----------------------------------|
--14b------14~---L~------------12--|----------------------------------|
-----------------------13--14------|--14b------14~---L----13h-14p-13--|
-----------------------------------|----------------------------------|
-----------------------------------|----------------------------------|
-----------------------------------|----------------------------------|


                                             >                      
   E   E   Q      S   S   S  S  E  E     E   Q     S S Q     E  E   
--------------------------------------|-------------------------9--|
--12----------------------------------|----------------9\----------|
--------------------------------------|--9---------x-x-9\----------|
------14--14~----13h-14p-13--------9--|-----11~----x---------------|
----------------------------14-11-----|----------------------------|
--------------------------------------|----------------------------|


   H.             Q         Q     S S   S  S  Q      E     S     S  
--12~------------12~----|--12~-------------------------------------|
------------------------|-----------9h-12p-9-----------------------|
------------------------|--------------------11~-----Lpb---Lpbr-11-|
------------------------|------------------------------------------|
------------------------|------------------------------------------|
------------------------|------------------------------------------|


   H         H            Q.      E   H            Q    E  E  E  Q.      
-----------------------|------------------------|-----------------------|
-----------------------|----------0--10b--------|-----------------------|
--11~--------9~--------|--8~--------------------|-----------------------|
-----------------------|------------------------|--2----2--2--9--9------|
-----------------------|------------------------|--2----2--2--9--9------|
-----------------------|------------------------|--0----0--0--7--7------|


  E  Q    S S E  E  E  E     E  Q    S S E  E  E  E   
--------------------------|--------------------------|
--------------------------|--------------------------|
--6--6--------------------|--------------------------|
--6--6----7-7-7--7--7--7--|--2--2----2-2-2--2--2--2--|
--4--4----7-7-7--7--7--7--|--2--2----2-2-2--2--2--2--|
----------5-5-5--5--5--5--|--0--0----0-0-0--0--0--0--|


  E  Q    S S E  E  E  E     E  Q    S S E  E  E  E   
--------------------------|--------------------------|
--------------------------|--------------------------|
--6--6--------------------|--------------------------|
--6--6----7-7-7--7--7--7--|--2--2----2-2-9--9--9--9--|
--4--4----7-7-7--7--7--7--|--2--2----2-2-9--9--9--9--|
----------5-5-5--5--5--5--|--0--0----0-0-7--7--7--7--|


  E  Q    S S E  E  E  E     E  E  E  E  E  E  E  E   
--------------------------|--------------------------|
--------------------------|--------------------------|
--6--6--------------------|--------------------------|
--6--6----7-7-7--7--7--7--|--9--9--9--9--9--9--9--9--|
--4--4----7-7-7--7--7--7--|--9--9--9--9--9--9--9--9--|
----------5-5-5--5--5--5--|--7--7--7--7--7--7--7--7--|


  E  E  E  E  E  E  E  E     Q    E  E  E  Q.        E  Q    S S E  E  E  E   
--------------------------|-----------------------|--------------------------|
--------------------------|-----------------------|--------------------------|
--------------------------|-----------------------|--6--6--------------------|
--9--9--9--9--9--9--9--9--|--2----2--2--9--9------|--6--6----7-7-7--7--7--7--|
--9--9--9--9--9--9--9--9--|--2----2--2--9--9------|--4--4----7-7-7--7--7--7--|
--7--7--7--7--7--7--7--7--|--0----0--0--7--7------|----------5-5-5--5--5--5--|


  E  Q    S S E  E  E  E     E  Q    S S E  E  E  E   
--------------------------|--------------------------|
--------------------------|--------------------------|
--------------------------|--6--6--------------------|
--2--2----2-2-2--2--2--2--|--6--6----7-7-7--7--7--7--|
--2--2----2-2-2--2--2--2--|--4--4----7-7-7--7--7--7--|
--0--0----0-0-0--0--0--0--|----------5-5-5--5--5--5--|


  E  Q    S S E  E  E  E     E  Q    S S E  E  E  E   
--------------------------|--------------------------|
--------------------------|--------------------------|
--------------------------|--6--6--------------------|
--2--2----2-2-9--9--9--9--|--6--6----7-7-7--7--7--7--|
--2--2----2-2-9--9--9--9--|--4--4----7-7-7--7--7--7--|
--0--0----0-0-7--7--7--7--|----------5-5-5--5--5--5--|


  E  E  E  E  E  E  E  E     E  E  E  E  E  E  E  E   
--------------------------|--------------------------|
--------------------------|--------------------------|
--------------------------|--------------------------|
--9--9--9--9--9--9--9--9--|--9--9--9--9--9--9--9--9--|
--9--9--9--9--9--9--9--9--|--9--9--9--9--9--9--9--9--|
--7--7--7--7--7--7--7--7--|--7--7--7--7--7--7--7--7--|


          >            >               >                          
  E  E  S E.   E  E  S E.      E  E  S E.   S S S  S  S  S  S  S  
----------------------------|------------------------------------|
----------------------------|------------------------------------|
----------------------------|------------------------------------|
--------6-7~---------6-7~---|--------6-7~------------------------|
--7--7---------7--7---------|--7--7-----------7-9p-0-12p-0-------|
--0--0---------0--0---------|--0--0------------------------14p-0-|


          >            >               >                          
  E  E  S E.   E  E  S E.      E  E  S E.   S S S  S  S  S  S  S  
----------------------------|------------------------------------|
----------------------------|------------------------------------|
----------------------------|------------------------------------|
--------6-7~---------6-7~---|--------6-7~------------------------|
--7--7---------7--7---------|--7--7-----------7-9p-0-12p-0-------|
--0--0---------0--0---------|--0--0------------------------14p-0-|


  W                  
-------------------||
-------------------||
-------------------||
-------------------||
--7----------------||
--0----------------||

=================================================================
=================================================================


Guitar 2



     E  E  Q    E  E  Q       E  E  Q    Q    Q       E  E  Q    E  E  Q     
E||------------------------|-----------------------|------------------------|
B||------------------------|-----------------------|------------------------|
G||------------------------|-----------------------|------------------------|
D||------------------------|-----------------------|------------------------|
A||--7--7-------7--7-------|--7--7-----------------|--7--7-------7--7-------|
E||--0--0-------0--0-------|--0--0-----------------|--0--0-------0--0-------|


  E  E  Q    Q    Q               W                   W                 
-----------------------|-------|-------------------|-------------------|
-----------------------|-------|-------------------|-------------------|
-----------------------|-------|-------------------|-------------------|
-----------------------|-------|-------------------|-------------------|
--7--7-----------------|-------|-------------------|-------------------|
--0--0-----------------|-------|-------------------|-------------------|


  W                   W                   W                   W                 
-------------------|-------------------|-------------------|-------------------|
-------------------|-------------------|-------------------|-------------------|
-------------------|-------------------|-------------------|-------------------|
-------------------|-------------------|-------------------|-------------------|
-------------------|-------------------|-------------------|-------------------|
-------------------|-------------------|-------------------|-------------------|


  W                   W                   W                   W                 
-------------------|-------------------|-------------------|-------------------|
-------------------|-------------------|-------------------|-------------------|
-------------------|-------------------|-------------------|-------------------|
-------------------|-------------------|-------------------|-------------------|
-------------------|-------------------|-------------------|-------------------|
-------------------|-------------------|-------------------|-------------------|


  W                   W                   E  E  S  S S S E  S S S  S S S  
-------------------|-------------------|---------------------------------|
-------------------|-------------------|---------------------------------|
-------------------|-------------------|---------------------------------|
-------------------|-------------------|--6--6--9p-6-6-6-6--6-6-9p-6-6-6-|
-------------------|-------------------|---------------------------------|
-------------------|-------------------|---------------------------------|


  E  E  S  S S S E  E  E  E     E  E  S  S S S E  S S S  S S S  
-----------------------------|---------------------------------|
-----------------------------|---------------------------------|
-----------------------------|---------------------------------|
--6--6--9p-6-6-6-7--6--------|--6--6--9p-6-6-6-6--6-6-9p-6-6-6-|
-----------------------9--7--|---------------------------------|
-----------------------------|---------------------------------|


  E  E  S  S S S E  E  E  E     E  E  S  S S S E  S S S  S S S  
-----------------------------|---------------------------------|
-----------------------------|---------------------------------|
-----------------------------|---------------------------------|
--6--6--9p-6-6-6-7--6--------|--6--6--9p-6-6-6-6--6-6-9p-6-6-6-|
-----------------------9--7--|---------------------------------|
-----------------------------|---------------------------------|


  E  E  S  S S S E  E  E  E      E  E  E  E  E  E  E  E   
-----------------------------|---------------------------|
-----------------------------|---------------------------|
-----------------------------|---------------------------|
--6--6--9p-6-6-6-7--6--------|---------------------------|
-----------------------9--7--|--/9--9--9--9--9--9--9--9--|
-----------------------------|---------------------------|


  E  E  E  E  E  E  E  E                                           
--------------------------|-------------------|-------------------|
--------------------------|-------------------|-------------------|
--------------------------|-------------------|-------------------|
--------------------------|-------------------|-------------------|
--9--9--9--9--9--9--9--9--|-------------------|-------------------|
--------------------------|-------------------|-------------------|


                                                              W                 
-------------------|-------------------|-------------------|-------------------|
-------------------|-------------------|-------------------|-------------------|
-------------------|-------------------|-------------------|-------------------|
-------------------|-------------------|-------------------|-------------------|
-------------------|-------------------|-------------------|-------------------|
-------------------|-------------------|-------------------|-------------------|


  W                   W                   W                   W                 
-------------------|-------------------|-------------------|-------------------|
-------------------|-------------------|-------------------|-------------------|
-------------------|-------------------|-------------------|-------------------|
-------------------|-------------------|-------------------|-------------------|
-------------------|-------------------|-------------------|-------------------|
-------------------|-------------------|-------------------|-------------------|


  W                   W                   W                   W                 
-------------------|-------------------|-------------------|-------------------|
-------------------|-------------------|-------------------|-------------------|
-------------------|-------------------|-------------------|-------------------|
-------------------|-------------------|-------------------|-------------------|
-------------------|-------------------|-------------------|-------------------|
-------------------|-------------------|-------------------|-------------------|


  W                   W                   W                 
-------------------|-------------------|-------------------|
-------------------|-------------------|-------------------|
-------------------|-------------------|-------------------|
-------------------|-------------------|-------------------|
-------------------|-------------------|-------------------|
-------------------|-------------------|-------------------|


  E  E  S  S S S E  S S S  S S S    E  E  S  S S S E  E  E  E   
---------------------------------|-----------------------------|
---------------------------------|-----------------------------|
---------------------------------|-----------------------------|
--6--6--9p-6-6-6-6--6-6-9p-6-6-6-|--6--6--9p-6-6-6-7--6--------|
---------------------------------|-----------------------9--7--|
---------------------------------|-----------------------------|


  E  E  S  S S S E  S S S  S S S    E  E  S  S S S E  E  E  E   
---------------------------------|-----------------------------|
---------------------------------|-----------------------------|
---------------------------------|-----------------------------|
--6--6--9p-6-6-6-6--6-6-9p-6-6-6-|--6--6--9p-6-6-6-7--6--------|
---------------------------------|-----------------------9--7--|
---------------------------------|-----------------------------|


  E  E  S  S S S E  S S S  S S S    E  E  S  S S S E  E  E  E   
---------------------------------|-----------------------------|
---------------------------------|-----------------------------|
---------------------------------|-----------------------------|
--6--6--9p-6-6-6-6--6-6-9p-6-6-6-|--6--6--9p-6-6-6-7--6--------|
---------------------------------|-----------------------9--7--|
---------------------------------|-----------------------------|


   E  E  E  E  E  E  E  E     E  E  E  E  E  E  E  E   
---------------------------|--------------------------|
---------------------------|--------------------------|
---------------------------|--------------------------|
---------------------------|--------------------------|
--/9--9--9--9--9--9--9--9--|--9--9--9--9--9--9--9--9--|
---------------------------|--------------------------|


  E  E  E  E  E  E  E  E     E  E  E  E  E  E  E  E   
--------------------------|--------------------------|
--------------------------|--------------------------|
--------------------------|--------------------------|
--7--7--7--7--7--7--7--7--|--------------------------|
--7--7--7--7--7--7--7--7--|--7--7--7--7--7--7--7--7--|
--5--5--5--5--5--5--5--5--|--4--4--4--4--4--4--4--4--|


  E  E  E  E  E  E  E  E     E  E  E  E  E  E  E  E   
--------------------------|--------------------------|
--------------------------|--------------------------|
--------------------------|--------------------------|
--9--9--9--9--9--9--9--9--|--9--9--9--9--9--9--9--9--|
--9--9--9--9--9--9--9--9--|--9--9--9--9--9--9--9--9--|
--7--7--7--7--7--7--7--7--|--7--7--7--7--7--7--7--7--|


  E  E  E  E  E  E  E  E     E  E  E  E  E  E  E  E   
--------------------------|--------------------------|
--------------------------|--------------------------|
--------------------------|--------------------------|
--7--7--7--7--7--7--7--7--|--------------------------|
--7--7--7--7--7--7--7--7--|--7--7--7--7--7--7--7--7--|
--5--5--5--5--5--5--5--5--|--4--4--4--4--4--4--4--4--|


  E  E  E  E  E  E  E  E     E  E  E  E  E  E  E  E   
--------------------------|--------------------------|
--------------------------|--------------------------|
--------------------------|--------------------------|
--9--9--9--9--9--9--9--9--|--9--9--9--9--9--9--9--9--|
--9--9--9--9--9--9--9--9--|--9--9--9--9--9--9--9--9--|
--7--7--7--7--7--7--7--7--|--7--7--7--7--7--7--7--7--|


  E  E  S  S S S E  S S S  S S S    E  E  S  S S S E  E  E  E   
---------------------------------|-----------------------------|
---------------------------------|-----------------------------|
---------------------------------|-----------------------------|
--6--6--9p-6-6-6-6--6-6-9p-6-6-6-|--6--6--9p-6-6-6-7--6--------|
---------------------------------|-----------------------9--7--|
---------------------------------|-----------------------------|


  E  E  S  S S S E  S S S  S S S    E  E  S  S S S E  S S S  S S S  
---------------------------------|---------------------------------|
---------------------------------|---------------------------------|
---------------------------------|---------------------------------|
--6--6--9p-6-6-6-6--6-6-9p-6-6-6-|--6--6--9p-6-6-6-6--6-6-9p-6-6-6-|
---------------------------------|---------------------------------|
---------------------------------|---------------------------------|


  E  E  S  S S S E  E  E  E     E  E  S  S S S E  S S S  S S S  
-----------------------------|---------------------------------|
-----------------------------|---------------------------------|
-----------------------------|---------------------------------|
--6--6--9p-6-6-6-7--6--------|--6--6--9p-6-6-6-6--6-6-9p-6-6-6-|
-----------------------9--7--|---------------------------------|
-----------------------------|---------------------------------|


   E  E  E  E  E  E  E  E     E  E  E  E  E  E  E  E   
---------------------------|--------------------------|
---------------------------|--------------------------|
---------------------------|--------------------------|
--/9--9--9--9--9--9--9--9--|--9--9--9--9--9--9--9--9--|
---------------------------|--------------------------|
---------------------------|--------------------------|


  E  E  S  S S S E  S S S  S S S    E  E  S  S S S E  E  E  E   
---------------------------------|-----------------------------|
---------------------------------|-----------------------------|
---------------------------------|-----------------------------|
--6--6--9p-6-6-6-6--6-6-9p-6-6-6-|--6--6--9p-6-6-6-7--6--------|
---------------------------------|-----------------------9--7--|
---------------------------------|-----------------------------|


  E  E  S  S S S E  S S S  S S S    E  E  S  S S S E  E  E  E   
---------------------------------|-----------------------------|
---------------------------------|-----------------------------|
---------------------------------|-----------------------------|
--6--6--9p-6-6-6-6--6-6-9p-6-6-6-|--6--6--9p-6-6-6-7--6--------|
---------------------------------|-----------------------9--7--|
---------------------------------|-----------------------------|


  E  E  S  S S S E  S S S  S S S    E  E  S  S S S E  E  E  E   
---------------------------------|-----------------------------|
---------------------------------|-----------------------------|
---------------------------------|-----------------------------|
--6--6--9p-6-6-6-6--6-6-9p-6-6-6-|--6--6--9p-6-6-6-7--6--------|
---------------------------------|-----------------------9--7--|
---------------------------------|-----------------------------|


   E  E  E  E  E  E  E  E     E  E  E  E  E  E  E  E                           
---------------------------|--------------------------|-----|-----|-----|-----|
---------------------------|--------------------------|-----|-----|-----|-----|
---------------------------|--------------------------|-----|-----|-----|-----|
---------------------------|--------------------------|-----|-----|-----|-----|
--/9--9--9--9--9--9--9--9--|--9--9--9--9--9--9--9--9--|-----|-----|-----|-----|
---------------------------|--------------------------|-----|-----|-----|-----|


                    E  E  E  E  E  E  E  E     E  E  Q    E  E  Q     
-----|-----|-----|--------------------------|------------------------|
-----|-----|-----|--------------------------|------------------------|
-----|-----|-----|--------------------------|------------------------|
-----|-----|-----|--------------------------|------------------------|
-----|-----|-----|--9--9--9--9--9--9--9--9--|--7--7-------7--7-------|
-----|-----|-----|--------------------------|--0--0-------0--0-------|


  E  E  Q    Q    Q       E  E  Q    E  E  Q       E  E  Q    Q    Q     
-----------------------|------------------------|-----------------------|
-----------------------|------------------------|-----------------------|
-----------------------|------------------------|-----------------------|
-----------------------|------------------------|-----------------------|
--7--7-----------------|--7--7-------7--7-------|--7--7-----------------|
--0--0-----------------|--0--0-------0--0-------|--0--0-----------------|


  W                  
-------------------||
-------------------||
-------------------||
-------------------||
--2----------------||
--0----------------||




Duration Legend
---------------
W - whole
H - half
Q - quarter
E - 8th
S - 16th
T - 32nd
X - 64th
. - note dotted
|-n-|  - n-tuplets


Tablature Legend
----------------
L - tied note
x - dead note
g - grace note
(n) - ghost note
> - accentuded note
NH - natural harmonic
AH - artificial harmonic
TH - tapped harmonic
SH - semi harmonic
PH - pitch harmonic
h - hammer on
p - pull off
b - bend
br - bendRelease
pb - preBend
pbr - preBendRelease
brb - bendReleaseBend
\n/ - tremolo bar dip
\n - tremolo bar dive
-/n - tremolo bar Release up
/n\ - tremolo bar inverted dip
/n - tremolo bar return
-\n - tremolo bar Release down
S - shift slide
s - legato slide
/ -  slide into from below or out of upwards
\ -  slide into from above or out of downwards
~ - vibrato
W - wide vibrato
tr - trill
TP - tremolo picking
T - tapping
S - slap
P - pop
< - fade in
^ - brush up
v - brush down
Tap to rate this tab
# A B C D E F G H I J K L M N O P Q R S T U V W X Y Z