Song name
# A B C D E F G H I J K L M N O P Q R S T U V W X Y Z

Collective Soul - Adored tab

-----------------------------------------------------------------------------
                                  
          Adored   - Collective Soul (GUITAR)
            
-----------------------------------------------------------------------------
Tabbed by: Scotto10

Tuning: standard tuning

=============================================================================       


Electric guitar 1 (clean)



     E  E  E  E  E  E  E  E     E  E  E  E  E  E  E  E   
E||--------0-----------0-----|--------------------0-----|
B||-----------2-----------3--|--------2--------------0--|
G||-----2-----------2--------|-----2-----2-----1--------|
D||--4-----------0-----------|--2-----------2-----------|
A||--------------------------|--------------------------|
E||--------------------------|--------------------------|


  E  E  E  E  E  E  E  E     E  E  E  E  E  E  E  E   
--------0-----------0-----|--------------------0-----|
-----------2-----------3--|--------2--------------0--|
-----2-----------2--------|-----2-----2-----1--------|
--4-----------0-----------|--2-----------2-----------|
--------------------------|--------------------------|
--------------------------|--------------------------|


  E  E  E  E  E  E  E  E     E  E  E  E  E  E  E  E   
--------0-----------0-----|--------------------0-----|
-----------2-----------3--|--------2--------------0--|
-----2-----------2--------|-----2-----2-----1--------|
--4-----------0-----------|--2-----------2-----------|
--------------------------|--------------------------|
--------------------------|--------------------------|


  E  E  E  E  E  E  E  E     E  E  E  E  E  E  E  E   
--------0-----------0-----|--------------------0-----|
-----------2-----------3--|--------2--------------0--|
-----2-----------2--------|-----2-----2-----1--------|
--4-----------0-----------|--2-----------2-----------|
--------------------------|--------------------------|
--------------------------|--------------------------|


  E  E  E  E  E  E  E  E     E  E  E  E  E  E  E  E   
--------0-----------0-----|--------------------0-----|
-----------2-----------3--|--------2--------------0--|
-----2-----------2--------|-----2-----2-----1--------|
--4-----------0-----------|--2-----------2-----------|
--------------------------|--------------------------|
--------------------------|--------------------------|


  E  E  E  E  E  E  E  E     E  E  E  E  E  E  E  E   
--------0-----------0-----|--------------------0-----|
-----------2-----------3--|--------2--------------0--|
-----2-----------2--------|-----2-----2-----1--------|
--4-----------0-----------|--2-----------2-----------|
--------------------------|--------------------------|
--------------------------|--------------------------|


                                  NH      NH   NH           
  E  E  E  E  E  E  E  E     E    E  E    E    E  E  E  E   
--------------------------|--------------------------------|
--------3--------3-----3--|----------2------------2-----2--|
-----2-----2--------------|--------------------------------|
--0-----------0-----0-----|--2--<>7----------<>7-----2-----|
--------------------------|-------------<>9----------------|
--------------------------|--------------------------------|


  E  E  E  E  E  E  E  E     E  E  E  E  E  E  E  E   
--------0-----------------|--------0-----------------|
-----------0-----0-----0--|-----------------0-----0--|
-----1--------1-----------|-----1--------1-----------|
--2-----------------2-----|--2--------2--------2-----|
--------------------------|--------------------------|
--------------------------|--------------------------|


                                  NH      NH   NH           
  E  E  E  E  E  E  E  E     E    E  E    E    E  E  E  E   
--------------------------|--------------------------------|
--------3--------3-----3--|----------2------------2-----2--|
-----2-----2--------------|--------------------------------|
--0-----------0-----0-----|--2--<>7----------<>7-----2-----|
--------------------------|-------------<>9----------------|
--------------------------|--------------------------------|


  E  E  E  E  E  E  E  E     E  E  E  E  E  E  E  E   
--------0-----------------|--------0-----------------|
-----------------0-----0--|-----------------0-----0--|
-----1--------1-----------|-----1--------1-----------|
--2--------2--------2-----|--2--------2--------2-----|
--------------------------|--------------------------|
--------------------------|--------------------------|


  E  E  E  E  E  E  E  E     E  E  E  E  E  E  E  E   
--------------------------|--------------------------|
--------2--------2-----2--|--------2--------2-----2--|
-----2--------2-----------|-----2--------2-----------|
--4--------4--------4-----|--2--------2--------2-----|
--------------------------|--------------------------|
--------------------------|--------------------------|


  E  E  E  E  E  E  E  E     E  E  E  E  E  E  E  E   
--------------------------|--------------------------|
--------0--------0-----0--|--------3--------3-----3--|
-----1--------1-----------|-----2--------2-----------|
--2--------2--------2-----|--4--------4--------4-----|
--------------------------|--------------------------|
--------------------------|--------------------------|


  E  E  E  E  E  E  E  E     E  E  E  E  E  E  E  E   
--------------------------|--------------------------|
--------2--------2-----2--|--------2--------2-----2--|
-----2--------2-----------|-----2--------2-----------|
--4--------4--------4-----|--2--------2--------2-----|
--------------------------|--------------------------|
--------------------------|--------------------------|


  E  E  E  E  E  E  E  E     E  E  E  E  E  E  E  E   
--------------------------|--------------------------|
--------0--------0-----0--|--------3--------3-----3--|
-----1--------1-----------|-----2--------2-----------|
--2--------2--------2-----|--4--------4--------4-----|
--------------------------|--------------------------|
--------------------------|--------------------------|


  E  E  E  E  E  E  E  E     E  E  E  E  E  E  E  E   
--------------------------|--------0-----------0-----|
--------3--------3-----3--|-----------2-----------3--|
-----2--------2-----------|-----2-----------2--------|
--0--------0--------0-----|--4-----------0-----------|
--------------------------|--------------------------|
--------------------------|--------------------------|


  E  E  E  E  E  E  E  E     E  E  E  E  E  E  E  E   
--------------------0-----|--------0-----------0-----|
--------2--------------0--|-----------2-----------3--|
-----2-----2-----1--------|-----2-----------2--------|
--2-----------2-----------|--4-----------0-----------|
--------------------------|--------------------------|
--------------------------|--------------------------|


  E  E  E  E  E  E  E  E     E  E  E  E  E  E  E  E   
--------------------0-----|--------0-----------0-----|
--------2--------------0--|-----------2-----------3--|
-----2-----2-----1--------|-----2-----------2--------|
--2-----------2-----------|--4-----------0-----------|
--------------------------|--------------------------|
--------------------------|--------------------------|


  E  E  E  E  E  E  E  E     E  E  E  E  E  E  E  E   
--------------------0-----|--------0-----------0-----|
--------2--------------0--|-----------2-----------3--|
-----2-----2-----1--------|-----2-----------2--------|
--2-----------2-----------|--4-----------0-----------|
--------------------------|--------------------------|
--------------------------|--------------------------|


  E  E  E  E  E  E  E  E     E  E  E  E  E  E  E  E   
--------------------0-----|--------0-----------0-----|
--------2--------------0--|-----------2-----------3--|
-----2-----2-----1--------|-----2-----------2--------|
--2-----------2-----------|--4-----------0-----------|
--------------------------|--------------------------|
--------------------------|--------------------------|


  E  E  E  E  E  E  E  E     E  E  E  E  E  E  E  E   
--------------------0-----|--------0-----------0-----|
--------2--------------0--|-----------2-----------3--|
-----2-----2-----1--------|-----2-----------2--------|
--2-----------2-----------|--4-----------0-----------|
--------------------------|--------------------------|
--------------------------|--------------------------|


  E  E  E  E  E  E  E  E     E  E  E  E  E  E  E  E   
--------------------0-----|--------------------------|
--------2--------------0--|--------3--------3-----3--|
-----2-----2-----1--------|-----2-----2--------------|
--2-----------2-----------|--0-----------0-----0-----|
--------------------------|--------------------------|
--------------------------|--------------------------|


       NH      NH   NH                                      
  E    E  E    E    E  E  E  E     E  E  E  E  E  E  E  E   
--------------------------------|--------0-----------------|
----------2------------2-----2--|-----------0-----0-----0--|
--------------------------------|-----1--------1-----------|
--2--<>7----------<>7-----2-----|--2-----------------2-----|
-------------<>9----------------|--------------------------|
--------------------------------|--------------------------|


  E  E  E  E  E  E  E  E     E  E  E  E  E  E  E  E   
--------0-----------------|--------------------------|
-----------------0-----0--|--------3--------3-----3--|
-----1--------1-----------|-----2-----2--------------|
--2--------2--------2-----|--0-----------0-----0-----|
--------------------------|--------------------------|
--------------------------|--------------------------|


       NH      NH   NH                                      
  E    E  E    E    E  E  E  E     E  E  E  E  E  E  E  E   
--------------------------------|--------0-----------------|
----------2------------2-----2--|-----------------0-----0--|
--------------------------------|-----1--------1-----------|
--2--<>7----------<>7-----2-----|--2--------2--------2-----|
-------------<>9----------------|--------------------------|
--------------------------------|--------------------------|


  E  E  E  E  E  E  E  E     E  E  E  E  E  E  E  E   
--------0-----------------|--------------------------|
-----------------0-----0--|--------2--------2-----2--|
-----1--------1-----------|-----2--------2-----------|
--2--------2--------2-----|--4--------4--------4-----|
--------------------------|--------------------------|
--------------------------|--------------------------|


  E  E  E  E  E  E  E  E     E  E  E  E  E  E  E  E   
--------------------------|--------------------------|
--------2--------2-----2--|--------0--------0-----0--|
-----2--------2-----------|-----1--------1-----------|
--2--------2--------2-----|--2--------2--------2-----|
--------------------------|--------------------------|
--------------------------|--------------------------|


  E  E  E  E  E  E  E  E     E  E  E  E  E  E  E  E   
--------------------------|--------------------------|
--------3--------3-----3--|--------2--------2-----2--|
-----2--------2-----------|-----2--------2-----------|
--4--------4--------4-----|--4--------4--------4-----|
--------------------------|--------------------------|
--------------------------|--------------------------|


  E  E  E  E  E  E  E  E     E  E  E  E  E  E  E  E   
--------------------------|--------------------------|
--------2--------2-----2--|--------0--------0-----0--|
-----2--------2-----------|-----1--------1-----------|
--2--------2--------2-----|--2--------2--------2-----|
--------------------------|--------------------------|
--------------------------|--------------------------|


  E  E  E  E  E  E  E  E     E  E  E  E  E  E  E  E   
--------------------------|--------------------------|
--------3--------3-----3--|--------3--------3-----3--|
-----2--------2-----------|-----2--------2-----------|
--4--------4--------4-----|--0--------0--------0-----|
--------------------------|--------------------------|
--------------------------|--------------------------|


  E  E  E  E  E  E  E  E     E  E  E  E  E  E  E  E   
--------------------------|--------------------------|
--------2-----------0-----|--------2-----------0-----|
-----------2-----------1--|-----------2-----------1--|
-----2-----------2--------|-----2-----------2--------|
--0-----------------------|--0-----------------------|
--------------0-----------|--------------0-----------|


  E  E  E  E  E  E  E  E     E  E  E  E  E  E  E  E   
--------------------------|--------------------------|
--------3--------3-----3--|--------3--------3-----3--|
-----2--------2-----------|-----2--------2-----------|
--0--------0--------0-----|--0--------0--------0-----|
--------------------------|--------------------------|
--------------------------|--------------------------|


  E  E  E  E  E  E  E  E     E  E  E  E  E  E  E  E   
--------------------------|--------------------------|
--------2-----------0-----|--------2-----------0-----|
-----------2-----------1--|-----------2-----------1--|
-----2-----------2--------|-----2-----------2--------|
--0-----------------------|--0-----------------------|
--------------0-----------|--------------0-----------|


  E  E  E  E  E  E  E  E     E  E  E  E  E  E  E  E   
--------------------------|--------------------------|
--------3--------3-----3--|--------3--------3-----3--|
-----2--------2-----------|-----2--------2-----------|
--0--------0--------0-----|--0--------0--------0-----|
--------------------------|--------------------------|
--------------------------|--------------------------|


  E  E  E  E  E  E  E  E     E  E  E  E  E  E  E  E   
--------0-----------0-----|--------------------0-----|
-----------2-----------3--|--------2--------------0--|
-----2-----------2--------|-----2-----2-----1--------|
--4-----------0-----------|--2-----------2-----------|
--------------------------|--------------------------|
--------------------------|--------------------------|


  E  E  E  E  E  E  E  E     E  E  E  E  E  E  E  E   
--------0-----------0-----|--------------------0-----|
-----------2-----------3--|--------2--------------0--|
-----2-----------2--------|-----2-----2-----1--------|
--4-----------0-----------|--2-----------2-----------|
--------------------------|--------------------------|
--------------------------|--------------------------|


  E  E  E  E  E  E  E  E     E  E  E  E  E  E  E  E   
--------------------------|--------------------------|
--------3--------3-----3--|--------2--------2-----2--|
-----2-----2--------------|-----2--------2-----------|
--0-----------0-----0-----|--2--------2--------2-----|
--------------------------|--------------------------|
--------------------------|--------------------------|


  E  E  E  E  E  E  E  E     E  E  E  E  E  E  E  E   
--------0-----------------|--------0-----------------|
-----------------0-----0--|-----------------0-----0--|
-----1--------1-----------|-----1--------1-----------|
--2--------2--------2-----|--2--------2--------2-----|
--------------------------|--------------------------|
--------------------------|--------------------------|


  E  E  E  E  E  E  E  E     E  E  E  E  E  E  E  E   
--------------------------|--------------------------|
--------3--------3-----3--|--------2--------2-----2--|
-----2-----2--------------|-----2--------2-----------|
--0-----------0-----0-----|--2--------2--------2-----|
--------------------------|--------------------------|
--------------------------|--------------------------|


  E  E  E  E  E  E  E  E     E  E  E  E  E  E  E  E   
--------0-----------------|--------0-----------------|
-----------------0-----0--|-----------------0-----0--|
-----1--------1-----------|-----1--------1-----------|
--2--------2--------2-----|--2--------2--------2-----|
--------------------------|--------------------------|
--------------------------|--------------------------|


  E  E  E  E  E  E  E  E     E  E  E  E  E  E  E  E   
--------------------------|--------------------------|
--------2--------2-----2--|--------2--------2-----2--|
-----2--------2-----------|-----2--------2-----------|
--4--------4--------4-----|--2--------2--------2-----|
--------------------------|--------------------------|
--------------------------|--------------------------|


  E  E  E  E  E  E  E  E     E  E  E  E  E  E  E  E   
--------------------------|--------------------------|
--------0--------0-----0--|--------3--------3-----3--|
-----1--------1-----------|-----2--------2-----------|
--2--------2--------2-----|--4--------4--------4-----|
--------------------------|--------------------------|
--------------------------|--------------------------|


  E  E  E  E  E  E  E  E     E  E  E  E  E  E  E  E   
--------------------------|--------------------------|
--------2--------2-----2--|--------2--------2-----2--|
-----2--------2-----------|-----2--------2-----------|
--4--------4--------4-----|--2--------2--------2-----|
--------------------------|--------------------------|
--------------------------|--------------------------|


  E  E  E  E  E  E  E  E     E  E  E  E  E  E  E  E   
--------------------------|--------------------------|
--------0--------0-----0--|--------3--------3-----3--|
-----1--------1-----------|-----2--------2-----------|
--2--------2--------2-----|--4--------4--------4-----|
--------------------------|--------------------------|
--------------------------|--------------------------|


  E  E  E  E  E  E  E  E     E  E  E  E  E  E  E  E   
--------------------------|--------------------------|
--------2--------2-----2--|--------2--------2-----2--|
-----2--------2-----------|-----2--------2-----------|
--4--------4--------4-----|--2--------2--------2-----|
--------------------------|--------------------------|
--------------------------|--------------------------|


  E  E  E  E  E  E  E  E     E  E  E  E  E  E  E  E   
--------------------------|--------------------------|
--------0--------0-----0--|--------3--------3-----3--|
-----1--------1-----------|-----2--------2-----------|
--2--------2--------2-----|--4--------4--------4-----|
--------------------------|--------------------------|
--------------------------|--------------------------|


  E  E  E  E  E  E  E  E     E  E  E  E  E  E  E  E   
--------------------------|--------------------------|
--------2--------2-----2--|--------2--------2-----2--|
-----2--------2-----------|-----2--------2-----------|
--4--------4--------4-----|--2--------2--------2-----|
--------------------------|--------------------------|
--------------------------|--------------------------|


  E  E  E  E  E  E  E  E     E  E  E  E  E  E  E  E   
--------------------------|--------------------------|
--------0--------0-----0--|--------3--------3-----3--|
-----1--------1-----------|-----2--------2-----------|
--2--------2--------2-----|--4--------4--------4-----|
--------------------------|--------------------------|
--------------------------|--------------------------|


  E  E  E  E  E  E  E  E     W                  
--------------------------|-------------------||
--------3--------3-----3--|--2----------------||
-----2--------2-----------|--2----------------||
--4--------4--------4-----|--2----------------||
--------------------------|--0----------------||
--------------------------|-------------------||




=====================================================
=====================================================

Electric guitar 2 (clean)



     E  E  E  E  E  E  E  E     E  E  E  E  E  E  E  E   
E||--------5-----------5-----|--------5-----------4-----|
B||-----5-----5-----5-----5--|-----5-----5-----5-----5--|
G||--6-----------7-----------|--6-----------------------|
D||--------------------------|--------------6-----------|
A||--------------------------|--------------------------|
E||--------------------------|--------------------------|


  E  E  E  E  E  E  E  E     E  E  E  E  E  E  E  E   
--------5-----------5-----|--------5-----------4-----|
-----5-----5-----5-----5--|-----5-----5-----5-----5--|
--6-----------7-----------|--6-----------------------|
--------------------------|--------------6-----------|
--------------------------|--------------------------|
--------------------------|--------------------------|


  E  E  E  E  E  E  E  E     E  E  E  E  E  E  E  E   
--------5-----------5-----|--------5-----------4-----|
-----5-----5-----5-----5--|-----5-----5-----5-----5--|
--6-----------7-----------|--6-----------------------|
--------------------------|--------------6-----------|
--------------------------|--------------------------|
--------------------------|--------------------------|


  E  E  E  E  E  E  E  E     E  E  E  E  E  E  E  E   
--------5-----------4--5--|--5--------5--4-----------|
-----5-----5-----7--------|-----5-----------5-----5--|
--6-----------7-----------|--------6-----------------|
--------------------------|--------------------6-----|
--------------------------|--------------------------|
--------------------------|--------------------------|


  E  E  E  E  E  E  E  E     E  E  E  E  E  E  E  E   
--------5-----------5-----|--------5-----------4-----|
-----5-----5-----5-----5--|-----5-----5-----5-----5--|
--6-----------7-----------|--6-----------------------|
--------------------------|--------------6-----------|
--------------------------|--------------------------|
--------------------------|--------------------------|


  E  E  E  E  E  E  E  E     E  E  E  E  E  E  E  E   
--------5-----------4-----|--5--------5--4-----------|
-----5-----5--7--------7--|-----5-----------5-----5--|
--6--------------7--------|--------6-----------------|
--------------------------|--------------------6-----|
--------------------------|--------------------------|
--------------------------|--------------------------|


  E  E  E  E  E  E  E  E     E  E  E  E  E  E  E  E   
--------2-----0--2--0-----|--0-----------5--------5--|
-----3-----3-----------3--|-----2-----2-----5--------|
--------------------------|--------2-----------6-----|
--4-----------------------|--------------------------|
--------------------------|--------------------------|
--------------------------|--------------------------|


  E  E  E  E  E  E  E  E     E  E  E  E  E  E  E  E   
--4-----------------------|--4-----------------------|
-----5-----5--------5-----|-----5-----5--------5-----|
--------4--------4-----4--|--------4--------4-----4--|
--------------6-----------|--------------6-----------|
--------------------------|--------------------------|
--------------------------|--------------------------|


  E  E  E  E  E  E  E  E     E  E  E  E  E  E  E  E   
--------------------------|--------------5--------5--|
--------7--------7--------|--5--------------5--------|
-----------7--9-----9--7--|-----6-----6--------6-----|
-----7--------------------|--------7-----------------|
--9-----------------------|--------------------------|
--------------------------|--------------------------|


  E  E  E  E  E  E  E  E     E  E  E  E  E  E  E  E   
--4-----------------------|--4-----5-----7--------7--|
-----5-----5--------5-----|-----5-----5-----5--------|
--------4--------4-----4--|--------------------4-----|
--------------6-----------|--------------------------|
--------------------------|--------------------------|
--------------------------|--------------------------|


  E  E  E  E  E  E  E  E     E  E  E  E  E  E  E  E   
-----4--------4-----------|-----7--------4-----------|
--------7--------7-----7--|--------5--------5-----5--|
-----------6--------6-----|-----------6--------6-----|
--4-----------------------|--7-----------------------|
--------------------------|--------------------------|
--------------------------|--------------------------|


  E  E  E  E  E  E  E  E     E  E  E  E  E  E  E  E   
--------------4-----------|--------5-----4--5-----5--|
--------5--------5--------|-----3-----3--------3-----|
-----4-----4--------4-----|--------------------------|
--6--------------------6--|--4-----------------------|
--------------------------|--------------------------|
--------------------------|--------------------------|


  E  E  E  E  E  E  E  E     E  E  E  E  E  E  E  E   
-----4--------4-----------|-----7--------4-----------|
--------7--------7-----7--|--------5--------5-----5--|
-----------6--------6-----|-----------6--------6-----|
--4-----------------------|--7-----------------------|
--------------------------|--------------------------|
--------------------------|--------------------------|


  E  E  E  E  E  E  E  E     E  E  E  E  E  E  E  E   
--------------4-----------|--------5-----4--5-----5--|
--------5--------5--------|-----3-----3--------3-----|
-----4-----4--------4-----|--------------------------|
--6--------------------6--|--4-----------------------|
--------------------------|--------------------------|
--------------------------|--------------------------|


  E  E  E  E  E  E  E  E     E  E  E  E  E  E  E  E   
--------5-----4--5-----5--|--------5-----------5-----|
-----3-----3--------3-----|-----5-----5-----5-----5--|
--------------------------|--6-----------7-----------|
--4-----------------------|--------------------------|
--------------------------|--------------------------|
--------------------------|--------------------------|


  E  E  E  E  E  E  E  E     E  E  E  E  E  E  E  E   
--------5-----------4-----|--------5-----------5-----|
-----5-----5-----5-----5--|-----5-----5-----5-----5--|
--6-----------------------|--6-----------7-----------|
--------------6-----------|--------------------------|
--------------------------|--------------------------|
--------------------------|--------------------------|


  E  E  E  E  E  E  E  E     E  E  E  E  E  E  E  E   
--------5-----------4-----|--------5-----------5-----|
-----5-----5-----5-----5--|-----5-----5-----5-----5--|
--6-----------------------|--6-----------7-----------|
--------------6-----------|--------------------------|
--------------------------|--------------------------|
--------------------------|--------------------------|


  E  E  E  E  E  E  E  E     E  E  E  E  E  E  E  E   
--------5-----------4-----|--------5-----------4--5--|
-----5-----5-----5-----5--|-----5-----5-----7--------|
--6-----------------------|--6-----------7-----------|
--------------6-----------|--------------------------|
--------------------------|--------------------------|
--------------------------|--------------------------|


  E  E  E  E  E  E  E  E     E  E  E  E  E  E  E  E   
--5--------5--4-----------|--------5-----------5-----|
-----5-----------5-----5--|-----5-----5-----5-----5--|
--------6-----------------|--6-----------7-----------|
--------------------6-----|--------------------------|
--------------------------|--------------------------|
--------------------------|--------------------------|


  E  E  E  E  E  E  E  E     E  E  E  E  E  E  E  E   
--------5-----------4-----|--------5-----------4-----|
-----5-----5-----5-----5--|-----5-----5--7--------7--|
--6-----------------------|--6--------------7--------|
--------------6-----------|--------------------------|
--------------------------|--------------------------|
--------------------------|--------------------------|


  E  E  E  E  E  E  E  E     E  E  E  E  E  E  E  E   
--5--------5--4-----------|--------2-----0--2--0-----|
-----5-----------5-----5--|-----3-----3-----------3--|
--------6-----------------|--------------------------|
--------------------6-----|--4-----------------------|
--------------------------|--------------------------|
--------------------------|--------------------------|


  E  E  E  E  E  E  E  E     E  E  E  E  E  E  E  E   
--0-----------5--------5--|--4-----------------------|
-----2-----2-----5--------|-----5-----5--------5-----|
--------2-----------6-----|--------4--------4-----4--|
--------------------------|--------------6-----------|
--------------------------|--------------------------|
--------------------------|--------------------------|


  E  E  E  E  E  E  E  E     E  E  E  E  E  E  E  E   
--4-----------------------|--------------------------|
-----5-----5--------5-----|--------7--------7--------|
--------4--------4-----4--|-----------7--9-----9--7--|
--------------6-----------|-----7--------------------|
--------------------------|--9-----------------------|
--------------------------|--------------------------|


  E  E  E  E  E  E  E  E     E  E  E  E  E  E  E  E   
--------------5--------5--|--4-----------------------|
--5--------------5--------|-----5-----5--------5-----|
-----6-----6--------6-----|--------4--------4-----4--|
--------7-----------------|--------------6-----------|
--------------------------|--------------------------|
--------------------------|--------------------------|


  E  E  E  E  E  E  E  E     E  E  E  E  E  E  E  E   
--4-----5-----7--------7--|-----4--------4-----------|
-----5-----5-----5--------|--------7--------7-----7--|
--------------------4-----|-----------6--------6-----|
--------------------------|--4-----------------------|
--------------------------|--------------------------|
--------------------------|--------------------------|


  E  E  E  E  E  E  E  E     E  E  E  E  E  E  E  E   
-----7--------4-----------|--------------4-----------|
--------5--------5-----5--|--------5--------5--------|
-----------6--------6-----|-----4-----4--------4-----|
--7-----------------------|--6--------------------6--|
--------------------------|--------------------------|
--------------------------|--------------------------|


  E  E  E  E  E  E  E  E     E  E  E  E  E  E  E  E   
--------5-----4--5-----5--|-----4--------4-----------|
-----3-----3--------3-----|--------7--------7-----7--|
--------------------------|-----------6--------6-----|
--4-----------------------|--4-----------------------|
--------------------------|--------------------------|
--------------------------|--------------------------|


  E  E  E  E  E  E  E  E     E  E  E  E  E  E  E  E   
-----7--------4-----------|--------------4-----------|
--------5--------5-----5--|--------5--------5--------|
-----------6--------6-----|-----4-----4--------4-----|
--7-----------------------|--6--------------------6--|
--------------------------|--------------------------|
--------------------------|--------------------------|


  E  E  E  E  E  E  E  E     E  E  E  E  E  E  E  E   
--------5-----4--5-----5--|--------5-----4--5-----5--|
-----3-----3--------3-----|-----3-----3--------3-----|
--------------------------|--------------------------|
--4-----------------------|--4-----------------------|
--------------------------|--------------------------|
--------------------------|--------------------------|


  E  E  E  E  E  E  E  E     E  E  E  E  E  E  E  E   
--------5-----------4-----|--------5-----------4-----|
-----5-----5-----5-----5--|-----5-----5-----5-----5--|
--6-----------4-----------|--6-----------4-----------|
--------------------------|--------------------------|
--------------------------|--------------------------|
--------------------------|--------------------------|


  E  E  E  E  E  E  E  E     E  E  E  E  E  E  E  E   
--------5-----------------|--------------------------|
-----3--------3--------3--|--------3--------3-----3--|
--2--------2--------2-----|-----2--------2-----------|
-----------------0--------|--0--------0--------0-----|
--------------------------|--------------------------|
--------------------------|--------------------------|


  E   E  E   E  E  E  E  E      E   E   E   E   E   E   E   E   
---------9------------7-----|----------12--------------12------|
-----10-----10-----9-----9--|------12------12------12------12--|
--9-------------9-----------|--14--------------13--------------|
----------------------------|----------------------------------|
----------------------------|----------------------------------|
----------------------------|----------------------------------|


   E   E   E   E   E   E   E   E      E   E   E   E   E   E   E   E   
----------10----------10------10--|----------10----------10------10--|
------10------10----------10------|------10------10----------10------|
--11--------------11--------------|--11--------------11--------------|
----------------------------------|----------------------------------|
----------------------------------|----------------------------------|
----------------------------------|----------------------------------|


  E  E  E  E  E  E  E  E     E  E  E  E  E  E  E  E   
--------5-----------5-----|--------5-----------4-----|
-----5-----5-----5-----5--|-----5-----5-----5-----5--|
--6-----------7-----------|--6-----------------------|
--------------------------|--------------6-----------|
--------------------------|--------------------------|
--------------------------|--------------------------|


  E  E  E  E  E  E  E  E     E  E  E  E  E  E  E  E   
--------5-----------4--5--|--5--------5--4-----------|
-----5-----5-----7--------|-----5-----------5-----5--|
--6-----------7-----------|--------6-----------------|
--------------------------|--------------------6-----|
--------------------------|--------------------------|
--------------------------|--------------------------|


  E  E  E  E  E  E  E  E     E  E  E  E  E  E  E  E   
--------2-----0--2--0-----|--0-----------5--------5--|
-----3-----3-----------3--|-----2-----2-----5--------|
--------------------------|--------2-----------6-----|
--4-----------------------|--------------------------|
--------------------------|--------------------------|
--------------------------|--------------------------|


  E  E  E  E  E  E  E  E     E  E  E  E  E  E  E  E   
--4-----------------------|--4-----------------------|
-----5-----5--------5-----|-----5-----5--------5-----|
--------4--------4-----4--|--------4--------4-----4--|
--------------6-----------|--------------6-----------|
--------------------------|--------------------------|
--------------------------|--------------------------|


  E  E  E  E  E  E  E  E     E  E  E  E  E  E  E  E   
--------------------------|--------------5--------5--|
--------7--------7--------|--5--------------5--------|
-----------7--9-----9--7--|-----6-----6--------6-----|
-----7--------------------|--------7-----------------|
--9-----------------------|--------------------------|
--------------------------|--------------------------|


  E  E  E  E  E  E  E  E     E  E  E  E  E  E  E  E   
--4-----------------------|--4-----5-----7--------7--|
-----5-----5--------5-----|-----5-----5-----5--------|
--------4--------4-----4--|--------------------4-----|
--------------6-----------|--------------------------|
--------------------------|--------------------------|
--------------------------|--------------------------|


  E  E  E  E  E  E  E  E     E  E  E  E  E  E  E  E   
-----4--------4-----------|-----7--------4-----------|
--------7--------7-----7--|--------5--------5-----5--|
-----------6--------6-----|-----------6--------6-----|
--4-----------------------|--7-----------------------|
--------------------------|--------------------------|
--------------------------|--------------------------|


  E  E  E  E  E  E  E  E     E  E  E  E  E  E  E  E   
--------------4-----------|--------5-----4--5-----5--|
--------5--------5--------|-----3-----3--------3-----|
-----4-----4--------4-----|--------------------------|
--6--------------------6--|--4-----------------------|
--------------------------|--------------------------|
--------------------------|--------------------------|


  E  E  E  E  E  E  E  E     E  E  E  E  E  E  E  E   
-----4--------4-----------|-----7--------4-----------|
--------7--------7-----7--|--------5--------5-----5--|
-----------6--------6-----|-----------6--------6-----|
--4-----------------------|--7-----------------------|
--------------------------|--------------------------|
--------------------------|--------------------------|


  E  E  E  E  E  E  E  E     E  E  E  E  E  E  E  E   
--------------4-----------|--------5-----4--5-----5--|
--------5--------5--------|-----3-----3--------3-----|
-----4-----4--------4-----|--------------------------|
--6--------------------6--|--4-----------------------|
--------------------------|--------------------------|
--------------------------|--------------------------|


  E  E  E  E  E  E  E  E     E  E  E  E  E  E  E  E   
-----4--------4-----------|-----7--------4-----------|
--------7--------7-----7--|--------5--------5-----5--|
-----------6--------6-----|-----------6--------6-----|
--4-----------------------|--7-----------------------|
--------------------------|--------------------------|
--------------------------|--------------------------|


  E  E  E  E  E  E  E  E     E  E  E  E  E  E  E  E   
--------------4-----------|--------5-----4--5-----5--|
--------5--------5--------|-----3-----3--------3-----|
-----4-----4--------4-----|--------------------------|
--6--------------------6--|--4-----------------------|
--------------------------|--------------------------|
--------------------------|--------------------------|


  E  E  E  E  E  E  E  E     E  E  E  E  E  E  E  E   
-----4--------4-----------|-----7--------4-----------|
--------7--------7-----7--|--------5--------5-----5--|
-----------6--------6-----|-----------6--------6-----|
--4-----------------------|--7-----------------------|
--------------------------|--------------------------|
--------------------------|--------------------------|


  E  E  E  E  E  E  E  E     E  E  E  E  E  E  E  E   
--------------4-----------|--------5-----4--5-----5--|
--------5--------5--------|-----3-----3--------3-----|
-----4-----4--------4-----|--------------------------|
--6--------------------6--|--4-----------------------|
--------------------------|--------------------------|
--------------------------|--------------------------|


  E  E  E  E  E  E  E  E     W                  
--------5-----4--5-----5--|--5----------------||
-----7-----7--------7-----|--5----------------||
--------------------------|--6----------------||
--4-----------------------|--7----------------||
--------------------------|-------------------||
--------------------------|-------------------||

=====================================================
=====================================================


Electric guitar 3 (distorted - harmony section until the end)

                                                           W                 
-------|-------|-------|-------|-------|-------|-------|--10----------------|
-------|-------|-------|-------|-------|-------|-------|--10----------------|
-------|-------|-------|-------|-------|-------|-------|--------------------|
-------|-------|-------|-------|-------|-------|-------|--------------------|
-------|-------|-------|-------|-------|-------|-------|--------------------|
-------|-------|-------|-------|-------|-------|-------|--------------------|


   W                   H        H           H        H         
---L----------------|--------------------|--------------------|
---L----------------|--------------------|--------------------|
--------------------|--6--------4--------|--6--------4--------|
--------------------|--------------------|--------------------|
--------------------|--4--------2--------|--4--------2--------|
--------------------|--------------------|--------------------|


  H.           Q       Q    Q     E  E  E  E     H        H         
--------------------|-------------------------|--------------------|
--------------------|-------------------------|--------------------|
--2------------4----|--6----7----11--9--7--6--|--L--------4--------|
--------------------|-------------------------|--------------------|
--------------------|-------------------------|--4--------2--------|
--------------------|-------------------------|--------------------|


  H        H           H.           Q       Q    Q    Q     Q     
--------------------|--------------------|-----------------------|
--------------------|--------------------|-----------------------|
--6--------4--------|--2------------4----|--6----7----9----11----|
--------------------|--------------------|-----------------------|
--4--------2--------|--------------------|-----------------------|
--------------------|--------------------|-----------------------|


  W                   W                   W                   W                 
-------------------|-------------------|-------------------|-------------------|
-------------------|-------------------|-------------------|-------------------|
--9----------------|--L----------------|--L----------------|--L----------------|
-------------------|-------------------|-------------------|-------------------|
-------------------|-------------------|-------------------|-------------------|
-------------------|-------------------|-------------------|-------------------|


  W                                                                 
-------------------|-------|-------|-------|-------|-------|-------|
-------------------|-------|-------|-------|-------|-------|-------|
--L----------------|-------|-------|-------|-------|-------|-------|
-------------------|-------|-------|-------|-------|-------|-------|
-------------------|-------|-------|-------|-------|-------|-------|
-------------------|-------|-------|-------|-------|-------|-------|


  Q.      Q.       Q         H        H                                         
-------------------------|---------------------|-------|-------|-------|-------|
-------------------------|---------------------|-------|-------|-------|-------|
--1s---------------------|---6-----------------|-------|-------|-------|-------|
--6s------8s------10s----|--11-----------------|-------|-------|-------|-------|
-------------------------|---------------------|-------|-------|-------|-------|
-------------------------|---------------------|-------|-------|-------|-------|


-------|-------|-------|-------|-------|-------|-------|
-------|-------|-------|-------|-------|-------|-------|
-------|-------|-------|-------|-------|-------|-------|
-------|-------|-------|-------|-------|-------|-------|
-------|-------|-------|-------|-------|-------|-------|
-------|-------|-------|-------|-------|-------|-------|


   E   H.             E              E   H.             E           
--14---------------------|-------|--12---------------------|-------|
------14~-------------L--|-------|------12~-------------L--|-------|
-------------------------|-------|-------------------------|-------|
-------------------------|-------|-------------------------|-------|
-------------------------|-------|-------------------------|-------|
-------------------------|-------|-------------------------|-------|


   W                           
--10-----------------|-------||
--10~----------------|-------||
---------------------|-------||
---------------------|-------||
---------------------|-------||
---------------------|-------||



=====================================================
=====================================================


Electric guitar 4 (distorted - harmony section)


   H         H            H         H            H.            Q     
----------------------|----------------------|----------------------|
----------------------|----------------------|----------------------|
--18--------16--------|--18--------16--------|--14------------16----|
----------------------|----------------------|----------------------|
----------------------|----------------------|----------------------|
----------------------|----------------------|----------------------|


   Q     Q     E   E   Q        H         H            H         H         
----------------------------|----------------------|----------------------|
--------------19------------|----------------------|----------------------|
--18----19--------21--19----|---L--------16--------|--18--------16--------|
----------------------------|----------------------|----------------------|
----------------------------|----------------------|----------------------|
----------------------------|----------------------|----------------------|


   H.            Q        Q     Q     Q     Q        W                 
----------------------|--------------------------|--12----------------|
----------------------|--------------------19----|--------------------|
--14------------16----|--18----19----21----------|--------------------|
----------------------|--------------------------|--------------------|
----------------------|--------------------------|--------------------|
----------------------|--------------------------|--------------------|


=====================================================
=====================================================


Electric guitar 5 (distorted - harmony section)


  H        H           H        H           H.           Q     
--5--------4--------|--5--------4--------|--2------------4----|
--------------------|--------------------|--------------------|
--------------------|--------------------|--------------------|
--------------------|--------------------|--------------------|
--------------------|--------------------|--------------------|
--------------------|--------------------|--------------------|


  Q    Q     E  E  E  E     H        H           H        H         
--5----7----10--9--7--5--|--L--------4--------|--5--------4--------|
-------------------------|--------------------|--------------------|
-------------------------|--------------------|--------------------|
-------------------------|--------------------|--------------------|
-------------------------|--------------------|--------------------|
-------------------------|--------------------|--------------------|


  H.           Q       Q    Q    Q     Q        W                 
--2------------4----|--5----7----9----10----|--------------------|
--------------------|-----------------------|--------------------|
--------------------|-----------------------|--------------------|
--------------------|-----------------------|--11----------------|
--------------------|-----------------------|--------------------|
--------------------|-----------------------|--------------------|


   W                    W                    W                 
--------------------|--------------------|--------------------|
--------------------|--------------------|--------------------|
--------------------|--------------------|--------------------|
---L----------------|---L----------------|---L----------------|
--------------------|--------------------|--------------------|
--------------------|--------------------|--------------------|



=====================================================
=====================================================


Electric guitar 6 (distorted - harmony section)


   H         H            H         H            H.            Q     
--17--------16--------|--17--------16--------|--14------------16----|
----------------------|----------------------|----------------------|
----------------------|----------------------|----------------------|
----------------------|----------------------|----------------------|
----------------------|----------------------|----------------------|
----------------------|----------------------|----------------------|


   Q     Q     E   E   E   E      H         H            H         H         
--17----19----22--21--19--17--|---L--------16--------|--17--------16--------|
------------------------------|----------------------|----------------------|
------------------------------|----------------------|----------------------|
------------------------------|----------------------|----------------------|
------------------------------|----------------------|----------------------|
------------------------------|----------------------|----------------------|


   H.            Q        Q     Q     Q     Q        W                 
--14------------16----|--17----19----21----22----|--------------------|
----------------------|--------------------------|--14----------------|
----------------------|--------------------------|--------------------|
----------------------|--------------------------|--------------------|
----------------------|--------------------------|--------------------|
----------------------|--------------------------|--------------------|




=====================================================
=====================================================


Electric guitar 7 (distorted - harmony section)



  H        H           H        H           W                 
--------------------|--------------------|-------------------|
--------------------|--------------------|-------------------|
--------------------|--------------------|-------------------|
--------------------|--------------------|-------------------|
--------------------|--------------------|--5----------------|
--5--------0--------|--5--------0--------|-------------------|


  W                   H        H           H        H         
-------------------|--------------------|--------------------|
-------------------|--------------------|--------------------|
-------------------|--------------------|--------------------|
-------------------|--------------------|--------------------|
--L----------------|--------------------|--------------------|
-------------------|--5--------0--------|--5--------0--------|


  W                   W                    W                 
-------------------|-------------------|--------------------|
-------------------|-------------------|--------------------|
-------------------|-------------------|--14----------------|
-------------------|-------------------|--------------------|
--5----------------|--L----------------|--------------------|
-------------------|-------------------|--------------------|


   W                    W                    W                 
--------------------|--------------------|--------------------|
--------------------|--------------------|--------------------|
---L----------------|---L----------------|---L----------------|
--------------------|--------------------|--------------------|
--------------------|--------------------|--------------------|
--------------------|--------------------|--------------------|


=====================================================
=====================================================



Electric guitar 8 (distorted - harmony section)



  H        H           H        H           W                 
--------------------|--------------------|-------------------|
--------------------|--------------------|-------------------|
--------------------|--------------------|-------------------|
--------------------|--------------------|--4----------------|
--4--------2--------|--4--------2--------|-------------------|
--------------------|--------------------|-------------------|


  W                   H        H           H        H         
-------------------|--------------------|--------------------|
-------------------|--------------------|--------------------|
-------------------|--------------------|--------------------|
--L----------------|--------------------|--------------------|
-------------------|--4--------2--------|--4--------2--------|
-------------------|--------------------|--------------------|


  W                   W                    W                 
-------------------|-------------------|--------------------|
-------------------|-------------------|--------------------|
-------------------|-------------------|--------------------|
--4----------------|--L----------------|--14----------------|
-------------------|-------------------|--------------------|
-------------------|-------------------|--------------------|


   W                    W                    W                 
--------------------|--------------------|--------------------|
--------------------|--------------------|--------------------|
--------------------|--------------------|--------------------|
---L----------------|---L----------------|---L----------------|
--------------------|--------------------|--------------------|
--------------------|--------------------|--------------------|




Duration Legend
---------------
W - whole
H - half
Q - quarter
E - 8th
S - 16th
T - 32nd
X - 64th
. - note dotted
|-n-|  - n-tuplets


Tablature Legend
----------------
L - tied note
x - dead note
g - grace note
(n) - ghost note
> - accentuded note
NH - natural harmonic
AH - artificial harmonic
TH - tapped harmonic
SH - semi harmonic
PH - pitch harmonic
h - hammer on
p - pull off
b - bend
br - bendRelease
pb - preBend
pbr - preBendRelease
brb - bendReleaseBend
\n/ - tremolo bar dip
\n - tremolo bar dive
-/n - tremolo bar Release up
/n\ - tremolo bar inverted dip
/n - tremolo bar return
-\n - tremolo bar Release down
S - shift slide
s - legato slide
/ -  slide into from below or out of upwards
\ -  slide into from above or out of downwards
~ - vibrato
W - wide vibrato
tr - trill
TP - tremolo picking
T - tapping
S - slap
P - pop
< - fade in
^ - brush up
v - brush down
Tap to rate this tab
# A B C D E F G H I J K L M N O P Q R S T U V W X Y Z