Song name
# A B C D E F G H I J K L M N O P Q R S T U V W X Y Z

Collective Soul - Better Now tab

--------------------------------------------------|
--------------------------------3-3--2--2-2-------|
-4-4-4---2-----2-2-----4-4-4--4-2-2--2--2-2-------|
-4-4-4---2-2---2-2-0---4-4-4--4-0-0--2--2-2-0-----|x3
-2-2-2---0-2---0-0-0---2-2-2--2-0-0--0--0-0-0-----|
-----------0--------------------------------------|



----------------------------------------------------------------|
---------3-------------------2-----------------------2----------|
4--------2-------------------2-----------------------2----------|
4--------0-------------------2---------5-------------2----------|Strum
2--------0-------------------0---------5-------------0----------|
---------------------------------------3------------------------|

Let the word out.  I got to get out.   oh Im feelin' better now.


----------------------------------|
----------------------------------|
----------------------------------|
444444444444444444444444444444444-|Harmonic
----------------------------------|
----------------------------------|

The world's done shakin' me down.
Tap to rate this tab
# A B C D E F G H I J K L M N O P Q R S T U V W X Y Z