Song name
# A B C D E F G H I J K L M N O P Q R S T U V W X Y Z

Collective Soul - Perfect To Stay Acoustic tab

-------------------------------------------------------------------------------
			     Perfect to Stay (Acoustic) - Collective Soul
-------------------------------------------------------------------------------
Tabbed by: Jordan Elek
Email: burnincheez@aim.com

Tuning: Down 1/2 step (eb Bb Gb Db Ab Eb)

Chords used:
    Em7   Cadd9    G     D/F#    Am
eb|--3------3------3------2------0-----||
Bb|--3------3------3------3------1-----||
Gb|--0------0------0------2------2-----||
Db|--2------2------0------0------2-----||
Ab|--2------3------2------0------0-----||
Eb|--0-------------3------2------------||

Riff1: (Guitar 2)

eb|----------------------------------------------------------------------||
Bb|----------------------8-10/12-10---10-12~--8-10/12-10-----------------||
Gb|--4/5-5/7~--2p0-2p0--------------7--------------------7-7/2-2p0-2p0---||
Db|----------------------------------------------------------------------||
Ab|----------------------------------------------------------------------||
Eb|----------------------------------------------------------------------||


Riff2: (Guitar 2)

eb|-------------------------------------------------||
Bb|--8-10/12-10---10-12~--8-10/12-10----------------||
Gb|-------------7--------------------7-7/2-2p0-2p0--||
Db|-------------------------------------------------||
Ab|-------------------------------------------------||
Eb|-------------------------------------------------||


Riff3: (Guitar 2)

eb|-10--10--10--10--3/10--10--10--10--10--15-14-15-10--| 
Bb|----------------------------------------------------|
Gb|----------------------------------------------------|
Db|----------------------------------------------------|
Ab|----------------------------------------------------|
Eb|----------------------------------------------------|

eb|-10--10--10--3/7--7p5-3--7--10--12--15-15-||
Bb|------------------------------------------||
Gb|------------------------------------------||
Db|------------------------------------------||
Ab|------------------------------------------||
Eb|------------------------------------------||


Riff4: (Guitar 2)

eb|---------------------||
Bb|--8-10/12-10-----8~--||
Gb|-------------7-7-----||
Db|---------------------||
Ab|---------------------||
Eb|---------------------||

Intro: Guitar 1 - (Em Cadd9 G D/F#) x4
       Guitar 2 - (Riff1)

Verse: Guitar 1 - (Em Cadd9 G D/F#) x4
She said good day boy, are you ready to shake
I said I love noise and this life that it makes

Chorus: Guitar 1 - (Cadd9 G D/F#) x3 (G Cadd9) x2
See I have a line though it's subject to change
I once had a thought but then I gave it away
Yeah sooner or later I'll be perfect to stay
Ah ah ah, I'll be perfect to stay
Ah ah ah, I'll be perfe=, t to stay

Interlude: Guitar 1 - (Em Cadd9 G D/F#) x2
           Guitar 2 - (Riff2)

Verse: Guitar 1 - (Em Cadd9 G D/F#) x4
She said good night boy, are you feeling alone
I said I love time but never ever this long

Chorus: Guitar 1 - (Cadd9 G D/F#) x3 (G Cadd9) x2
See I have a line though it's subject to change
I once had a thought but then I gave it away
Yeah sooner or later I'll be perfect to stay
Ah ah ah, I'll be perfect to stay
Ah ah ah, I'll be perfect to stay

Bridge: Guitar 1 - (Am Cadd9) x2
Like the sun surely loves it's newborn days yeah
Like all oceans love their waves I'm perfect to stay

Interlude: Guitar 1 - (Em Cadd9 G D/F#) x4
           Guitar 2 - (Riff3)

Chorus: Guitar 1 - (Cadd9 G D/F#) x3 (G Cadd9) x2
See I have a line though it's subject to change
I once had a thought but then I gave it away
Yeah sooner or later I'll be perfect to stay
Ah ah ah, I'll be perfect to stay
Ah ah ah, I'll be perfect to stay

Outro: Guitar 1 - (G Cadd9) x4 (G)
       Guitar 2 - (Riff4) x4
I'll be perfect to stay

| /  slide up
| \  slide down
| h  hammer-on
| p  pull-off
| ~  vibrato
| +  harmonic
| x  Mute note
===============================================================================
Tap to rate this tab
# A B C D E F G H I J K L M N O P Q R S T U V W X Y Z