Song name
# A B C D E F G H I J K L M N O P Q R S T U V W X Y Z

Collective Soul - December Acoustic tab

-------------------------------------------------------------------------------
			     December (Acoustic) - Collective Soul
-------------------------------------------------------------------------------
Tabbed by: Jordan Elek
Email: burnincheez@aim.com

Tuning: eb Bb Gb Db Ab Eb

Riff1:

eb|------3---3-3-----3---3-3-----3---3-3-----3-3---3--|
Bb|--------3-3-3-------3-3-3-------3-3-3-------3---3--|
Gb|----0-----0-0---0-----0-0---0-----0-0---0---0---0--|
Db|----------0-0---------3-3---------2-2-------3---x--|
Ab|--------------------------3-----------1-------2----|
Eb|--3-----------1------------------------------------|

RIff2:

eb|------3---3-3-----3---3-3-----3---3-3----3-3---3--|
Bb|--------3-3-3-------3-3-3-------3-3-3------3---3--|
Gb|----0-----0-0---0-----0-0---0-----0-0--0---0---0--|
Db|----------0-0-3-------3-3-2-------2-2-3----3---x--|
Ab|--------------x-----------3-----------1------2----|
Eb|--3-----------1-----------------------------------|

Riff3:

eb|----3-3-3-3-3--3-3-3-3-3---3-3-3-3-3------3---3--|
Bb|----3-3-3-3-3--3-3-3-3-3---3-3-3-3-3------3---3--|
Gb|----0-0-0-0-0--0-0-0-0-0---0-0-0-0-0------0---0--|
Db|----0-0-0-0-0--3-3-3-3-3---2-2-2-2-2------3---x--|
Ab|-------------------------3-----------1------2----|
Eb|--3-----------1----------------------------------|
Tap to rate this tab
# A B C D E F G H I J K L M N O P Q R S T U V W X Y Z