Song name
# A B C D E F G H I J K L M N O P Q R S T U V W X Y Z

Collective Soul - Adored tab

----------------------------------------------------------------------------
			     SONG NAME - Band Name
----------------------------------------------------------------------------
Tabbed by:  Matt Peterson
Email:  mp57078@hotmail.com

Tuning:Standard

Just the main part of the song, but I believe this part is played in the background 
the entire song, during all parts of the song.  Sounds good on acoustic, then play the 
if you want to.

e|-------3--------3--------3--------2-----|
B|-----3---3----3---3----3---3----3---3---|
G|----------------------------------------|
D|------------------------------0---------|
A|------------3---------------------------|
E|---2-----------------3------------------|

Chords

F#m     C     G     D
Tap to rate this tab
 
# A B C D E F G H I J K L M N O P Q R S T U V W X Y Z