Song name
# A B C D E F G H I J K L M N O P Q R S T U V W X Y Z

Collective Soul - Bearing Witness To You tab

I noticed there where no tabs out for one of my favorite songs and i knew i probably 
alone when i wondered why, especially since its such a great song. standard tuning.


------------------------------------------------|
--10--9-7-5-2-----------------10--9-7-5-2-5-----|
---------------4-2-2-4-2------------------------|
------------------------------------------------|
------------------------------------------------|
------------------------------------------------|


------------------------------------------------|
-10-9-7-5-2-------------------10-9-7-5-7-12-----|
-------------4-2-2-4-2--------------------------|
------------------------------------------------|
------------------------------------------------|
------------------------------------------------|


this is my first time posting a tab so i hope i wrote it out right, this is only the 
guitars solo in the intro and every chorus, i'm still trying to figure the other riffs out 
the song so until then, enjoy this tab.
Tap to rate this tab
# A B C D E F G H I J K L M N O P Q R S T U V W X Y Z