Song name
# A B C D E F G H I J K L M N O P Q R S T U V W X Y Z

College - A Real Hero tab

Timing isn't so important in this song, I think. You can play this slowly or 
quickly and it sounds pretty nice either way. I can submit the rest of the song if 
people request me to do so. 

Intro

|--------------------------------------------------------------------------|
|-0--------1-----------------0--------1------------------------------------|
|----0-----------0-----0--------0-----------0---0--------------------------|
|---------------------------------------------0----------------------------|
|--------------------------------------------------------------------------|
|-3-----3-----3-----3--------0------0----0---------------------------------|

|--------------------------------------------------------------------------|
|-0--------1-----------------0--0-----3---1----0---------------------------|
|----0-----------0---------------------------------------------------------|
|----------------------------0-----0----0----0-----------------------------|
|-3-----3-----3-----3------------------------------------------------------|
|--------------------------------------------------------------------------|

|--------------------------------------------------------------------------|
|-0--------1-----------------0--------1------------------------------------|
|----0-----------0-----0--------0-----------0---0--------------------------|
|---------------------------------------------0----------------------------|
|--------------------------------------------------------------------------|
|-3-----3-----3-----3--------0------0----0---------------------------------|

|--------------------------------------------------------------------------|
|-0--------1--------------------0----1----0--------------------------------|
|----0-----------0----------2------------------2---------------------------|
|---------------------------0-----0-----0---0------------------------------|
|-3-----3-----3-----3------------------------------------------------------|
|--------------------------------------------------------------------------|

|--------------------------------------------------------------------------|
|-----------1----------------0---------1-----------------------------------|
|--2p0------------0-----0-------0------------0---0-------------------------|
|----------------------------------------------0---------------------------|
|--------------------------------------------------------------------------|
|--3-----3-----3-----3-------0------0-----0--------------------------------|

|--------------------------------------------------------------------------|
|--0-------1--------------0--------1---------------------------------------|
|----0----------0----0-------0----------0---0------------------------------|
|-------------------------0-----0-----0---0--------------------------------|
|--3----3-----3---3--------------------------------------------------------|
|--------------------------------------------------------------------------|
Tap to rate this tab
# A B C D E F G H I J K L M N O P Q R S T U V W X Y Z