Song name
# A B C D E F G H I J K L M N O P Q R S T U V W X Y Z

Collie Buddz - What A Feeling tab

Collie Buddz
"What a Feeling"
Tabbed by Feza

Tuning: Standard (EADGBe)

Repeated throughout the song.

Each of these
 Strumming            Listen to the song to hear pattern correctly.
 down & up
 [      ]
 |4-4-4-4---------4-4-4-4---------|4-4-4-4---------6-6-6-6---------|
 |4-4-4-4---------4-4-4-4---------|5-5-5-5---------7-7-7-7---------|
 |4-4-4-4---------4-4-4-4---------|4-4-4-4---------6-6-6-6---------|
 |6-6-6-6---------6-6-6-6---------|6-6-6-6---------8-8-8-8---------|
 |--------------------------------|--------------------------------|
 |--------------------------------|--------------------------------|

 |4-4-4-4---------4-4-4-4---------|4-4-4-4---------6-6-9-6---------|
 |4-4-4-4---------4-4-4-4---------|5-5-5-5---------7-------9-7-7---|
 |4-4-4-4---------4-4-4-4---------|4-4-4-4---------6---------------|
 |6-6-6-6---------6-6-6-6---------|6-6-6-6---------8---------------|
 |--------------------------------|--------------------------------|
 |--------------------------------|--------------------------------|
                                                    [           ]
                                                     Played with
                                                     pinky whilst
                                                     still holding
                                                     chord pattern


Enjoy!

This is my first ever tab. I couldn't find this guitar bit anywhere online so I thought 
work it out and share it. Look out for more soon!

Feza
Tap to rate this tab
# A B C D E F G H I J K L M N O P Q R S T U V W X Y Z