Song name
# A B C D E F G H I J K L M N O P Q R S T U V W X Y Z

Collin And Jamal - Lil Joey tab

#----------------------------------PLEASE NOTE--------------------------------#
#This file is the author's own work and represents their interpretation of the#
#song. You may only use this file for private study, scholarship, or research.#
#-----------------------------------------------------------------------------#
#-- File created with Instab - http://www.pconline.com/~smcarey/instab.html --#
#-----------------------------------------------------------------------------#

Author/Artist: collin and jamal
Title: lil' joey
Album: album 1
Transcribed by: collin and jamal
Email: sept2005@home.com

use a lot of distortion

------------------------------------------------------------------------------|
------------------------------------------------------------------------------|
------------------------------------------------------------------------------|
-2222-------------------------------------------------------------------------|
-2222----3333---7777---5555---------------------------------------------------|
-0000----3333---7777---5555---------------------------------------------------|
    palm mute all this          repeat 4 times

------------------------------------------------------------------------------|
------------------------------------------------------------------------------|
--2222------------------------------------------------------------------------|
--2222--3333----7777---5555---------------------------------------------------|
--0000--3333----7777---5555---------------------------------------------------|
------------------------------------------------------------------------------|
   palm mute all this            repeat 2 times

------------------------------------------------------------------------------|
------------------------------------------------------------------------------|
------------------------------------------------------------------------------|
--33333333---2----------------------------------------------------------------|
--33333333---2----------------------------------------------------------------|
--11111111---0----------------------------------------------------------------|
                                  do this 4 times

------------------------------------------------------------------------------|
------------------------------------------------------------------------------|
------------------------------------------------------------------------------|
------------------------------------------------------------------------------|
--333333333--222222222-11111111---1111----------------------------------------|
--333333333--222222222-11111111---1111-h1h1h1h1h1h1h1h1h1---------------------|
 outro

----15b--15p13--15p13-17b-----------------------------------------------------|
------------------------------------------------------------------------------|
------------------------------------------------------------------------------|
------------------------------------------------------------------------------|
------------------------------------------------------------------------------|
------------------------------------------------------------------------------|
          do this many times with heavy distortion
Tap to rate this tab
# A B C D E F G H I J K L M N O P Q R S T U V W X Y Z