Song name
# A B C D E F G H I J K L M N O P Q R S T U V W X Y Z

Collin Raye - Love Me tab

Collin Raye: Love Me

This file is the author's own work and represents their
interpretation of the song.   You may only use this file
for private study, scholarship, or research. drricky40@yahoo.com
#--------------------------------------------------------#

Love Me				Collin Raye

     C       G       Am      C       Dm      Gsus4   C
Intro
E|---0-------------------------------1-0-----------------1---0------------|
B|-----3-1-3---------1-0-1-1-------------3-1-0---1-1----------------------|
G|---------------0---------------0---2-0---------------0-2---0------------|
D|-------------0---0-----------2---0-----3-2---0--------------------------|
A|---3-------2-------0-------------------------------3--------------------|
E|---------------------------3---------------3----------------------------|

     C       G       Am      Am      F       G       C
Verse
E|---------0-----------------------------------------------3--------------|
B|-------1---------3-------1---------------1-------0-----1--------1-------|
G|-----0---------0-------2-------2-0-----2-------0-----0--------0---0-----|
D|-------------0-------2-------2-------3-------0-------------0h2----------|
A|---3-------2-------0-------0-----------------------3--------------------|
E|-----------------------------------1-------3----------------------------|

     C       G       Am      Am      Dm7     Dm7     Gsus4   G

E|---------0-------------------------------1------------------------------|
B|-------1---------3-------1-------------1-------1---1-----1-0------------|
G|-----0---------0-------2-------2-----2-------2---0-----0-------0--------|
D|-------------0-------2-------2---2-0-------0---------0-------0---0------|
A|---3-------2-------0-------0--------------------------------------------|
E|---------------------------------------------------3-------3------------|

     C       G       Am      Am      F       G       C

E|---------0-----------------------------------------------3--------3-----|
B|-------1---------3-------1---------------1-------0-----1--------1-------|
G|-----0---------0-------2-------2-0-----2-------0-----0--------0---------|
D|-------------0-------2-------2-------3-------0-------------0h2----------|
A|---3-------2-------0-------0-----------------------3--------------------|
E|-----------------------------------1-------3----------------------------|

     C       G       Am    F         G       G       C       C

E|---------0---------------------------------------3-----1---0------------|
B|-------1---------3-------------1-----------3----------------------------|
G|-----0---------0-------2-----2---2-----0-------------0-2---0------------|
D|-------------0-------2-----3---------0---0-----0------------------------|
A|---3-------2-------0-------------------------2-----3--------------------|
E|-------------------------1---------3------------------------------------|

     C       G       Am      Am      F       G       C
Verse
E|---------0-----------------------------------------------3--------------|
B|-------1---------3-------1---------------1-------0-----1--------1-------|
G|-----0---------0-------2-------2-0-----2-------0-----0--------0---0-----|
D|-------------0-------2-------2-------3-------0-------------0h2----------|
A|---3-------2-------0-------0-----------------------3--------------------|
E|-----------------------------------1-------3----------------------------|

     C       G       Am      Am      Dm7     Dm7     Gsus4   G

E|---------0-------------------------------1------------------------------|
B|-------1---------3-------1-------------1-------1---1-----1-0------------|
G|-----0---------0-------2-------2-----2-------2---0-----0-------0--------|
D|-------------0-------2-------2---2-0-------0---------0-------0---0------|
A|---3-------2-------0-------0--------------------------------------------|
E|---------------------------------------------------3-------3------------|

     C       G       Am      Am      F       G       C

E|---------0-----------------------------------------------3--------3-----|
B|-------1---------3-------1---------------1-------0-----1--------1-------|
G|-----0---------0-------2-------2-0-----2-------0-----0--------0---------|
D|-------------0-------2-------2-------3-------0-------------0h2----------|
A|---3-------2-------0-------0-----------------------3--------------------|
E|-----------------------------------1-------3----------------------------|

     C       G       Am    F         G       G       C       C

E|---------0---------------------------------------3-----1---0------------|
B|-------1---------3-------------1-----------3----------------------------|
G|-----0---------0-------2-----2---2-----0-------------0-2---0------------|
D|-------------0-------2-----3---------0---0-----0------------------------|
A|---3-------2-------0-------------------------2-----3--------------------|
E|-------------------------1---------3------------------------------------|
1.21
     F       G       C               F         G       C
E|--get-----for------do-----------------don't--up----me-------------------|
B|------------------------------------------------------------------------|
G|------------------------------------------------------------------------|
D|------------------------------------------------------------------------|
A|------------------------------------------------------------------------|
E|------------------------------------------------------------------------|
     F       G       Am              Dm        F       Gsus G
E|--meet---chores---thru-------------I--------long----be------------------|
B|------------------------------------------------------------------------|
G|------------------------------------------------------------------------|
D|------------------------------------------------------------------------|
A|------------------------------------------------------------------------|
E|------------------------------------------------------------------------|

     F       G       C               F         G       Am
E|--not-----let----down----------------darlin-wait----see-----------------|
B|------------------------------------------------------------------------|
G|------------------------------------------------------------------------|
D|------------------------------------------------------------------------|
A|------------------------------------------------------------------------|
E|------------------------------------------------------------------------|

     F       G       E7      Am      F         F       G
E|--tween---then-----0------again---loving----------------love me---------|
B|-------------------0----------------------------------------------------|
G|-------------------1----------------------------------------------------|
D|-------------------0----------------------------------------------------|
A|-------------------2----------------------------------------------------|
E|-------------------0----------------------------------------------------|

     C       G       Am      C       Dm      Gsus4   C
Intro
E|---0-------------------------------1-0-----------------1---0------------|
B|-----3-1-3---------1-0-1-1-------------3-1-0---1-1----------------------|
G|---------------0---------------0---2-0---------------0-2---0------------|
D|-------------0---0-----------2---0-----3-2---0--------------------------|
A|---3-------2-------0-------------------------------3--------------------|
E|---------------------------3---------------3----------------------------|

     C       G       Am      Am      F       G       C
Verse
E|---------0-----------------------------------------------3--------------|
B|-------0---------3-------1---------------1-------0-----1--------1-------|
G|-----0---------0-------2-------2-0-----2-------0-----0--------0---0-----|
D|-------------0-------2-------2-------3-------0-------------0h2----------|
A|---3-------2-------0-------0-----------------------3--------------------|
E|-----------------------------------1-------3----------------------------|

     C       G       Am      Am      Dm7     Dm7     Gsus4   G

E|---------0-------------------------------1------------------------------|
B|-------1---------3-------1-------------1-------1---1-----1-0------------|
G|-----0---------0-------2-------2-----2-------2---0-----0-------0--------|
D|-------------0-------2-------2---2-0-------0---------0-------0---0------|
A|---3-------2-------0-------0--------------------------------------------|
E|---------------------------------------------------3-------3------------|

     C       G       Am      Am      F       G       C

E|---------0-----------------------------------------------3--------3-----|
B|-------1---------3-------1---------------1-------0-----1--------1-------|
G|-----0---------0-------2-------2-0-----2-------0-----0--------0---------|
D|-------------0-------2-------2-------3-------0-------------0h2----------|
A|---3-------2-------0-------0-----------------------3--------------------|
E|-----------------------------------1-------3----------------------------|

     C       G       Am    F         G       G       C       C

E|---------0---------------------------------------3-----1---0------------|
B|-------1---------3-------------1-----------3----------------------------|
G|-----0---------0-------2-----2---2-----0-------------0-2---0------------|
D|-------------0-------2-----3---------0---0-----0------------------------|
A|---3-------2-------0-------------------------2-----3--------------------|
E|-------------------------1---------3------------------------------------|

     F       G       C               F         G       C
E|--get-----for------do-----------------don't--up----me-------------------|
B|------------------------------------------------------------------------|
G|------------------------------------------------------------------------|
D|------------------------------------------------------------------------|
A|------------------------------------------------------------------------|
E|------------------------------------------------------------------------|

     F       G       Am              Dm        F       Gsus G
E|--meet---chores---thru-------------I--------long----be------------------|
B|------------------------------------------------------------------------|
G|------------------------------------------------------------------------|
D|------------------------------------------------------------------------|
A|------------------------------------------------------------------------|
E|------------------------------------------------------------------------|

     F       G       C               F         G       Am
E|--not-----let----down----------------darlin-wait----see-----------------|
B|------------------------------------------------------------------------|
G|------------------------------------------------------------------------|
D|------------------------------------------------------------------------|
A|------------------------------------------------------------------------|
E|------------------------------------------------------------------------|

     F       G       E7      Am      F         F       G
E|--tween---then-----0------again---loving----------------love me---------|
B|-------------------0----------------------------------------------------|
G|-------------------1----------------------------------------------------|
D|-------------------0----------------------------------------------------|
A|-------------------2----------------------------------------------------|
E|-------------------0----------------------------------------------------|
3.19
     C       C/E
E|---0-------0------------------------------------------------------------|
B|---1-------1------------------------------------------------------------|
G|---0-------0------------------------------------------------------------|
D|---2-------2------------------------------------------------------------|
A|---3-------3------------------------------------------------------------|
E|---x-------0------------------------------------------------------------|

     F       G       E7      Am      F                 G
E|--tween---then-----0------again---loving----------------love me---------|
B|-------------------0----------------------------------------------------|
G|-------------------1----------------------------------------------------|
D|-------------------0----------------------------------------------------|
A|-------------------2----------------------------------------------------|
E|-------------------0----------------------------------------------------|

     C       G       Am      C       Dm      Gsus4   C
Intro
E|---0-------------------------------1-0-----------------1---0------------|
B|-----3-1-3---------1-0-1-1-------------3-1-0---1-1----------------------|
G|---------------0---------------0---2-0---------------0-2---0------------|
D|-------------0---0-----------2---0-----3-2---0--------------------------|
A|---3-------2-------0-------------------------------3--------------------|
E|---------------------------3---------------3----------------------------|
Tap to rate this tab
 
# A B C D E F G H I J K L M N O P Q R S T U V W X Y Z