Song name
# A B C D E F G H I J K L M N O P Q R S T U V W X Y Z

Color It Red - Paglisan tab

C
|-------------0------|
|---1-------3---1----|   2X
|--------0-----------|
|------2-------------|
|---3----------------|
|--------------------|

F                     G
|--------1------|-----------3-----|
|------1-----1--|---------3---3---|
|----2-----2---2|-------0-------0-|
|--3------------|-----0-----------|
|---------------|---2-------------|
|---------------|-----------------|
ulitin niyo pero ung part ng G ganito na...
|-----------3-------3-|
|---------3---3---3---|
|-------0-------0-----|
|-----0---------------|
|---2-----------------|
|---------------------|
un lang poh sana magustuhan ninyo....
tan2_08@yahoo.com
Tap to rate this tab
# A B C D E F G H I J K L M N O P Q R S T U V W X Y Z