Song name
# A B C D E F G H I J K L M N O P Q R S T U V W X Y Z

Color Me Badd - Close To Heaven tab

Closer To Heaven
by Color Me Badd

Intro/Chorus

             E                C#                 F#m         B
E|--------------------------------------------------------------|
B|--------------------------------------------------------------|
G|------------1-------------------------------------------------|
D|----2h4p2---2-------------------------------------------------|
A|-2h4--------2----------2-2/4----------(4)/2-0--------(2)/4\2--|
E|----------0----0-(2)/4------------------------2---------------|

Verse (acoustic)

Bridge:
AM7
All I wanted All I ever wanted was you
EM7                C#7
And for you to love me
AM7
You keep me warm
G#m7
And you give me love
C#m7
I know you’re the one for me


Solo
E|-------------7------------------------9-7-------------------|
B|------9--10-----7--6--7-9-10-----9-10-----10-9h10p9--7------|
G|--4/9-----------6--6------------x---------------------------|
D|-------------------------------x----------------------------|
A|------------------------------------------------------------|
E|------------------------------------------------------------|

E|-------0h4-5-/-7----12-11-12--12--12-12-12------7-10-9-7----|
B|-----------5-/-7------------12--10--9--7--6---9-------------|
G|------------------------------------------------------------|
D|----6/9-----------------------------------------------------|
A|------------------------------------------------------------|
E|-0h4--------------------------------------------------------|

E|------------------------------------------------------------|
B|-10p9h10----10-------10--9-------9-7--7-7-7--5--4--5--------|
G|----------------6--9-----------9------6-6-6--6--5--4--------|
D|-----------------------------9------------------------------|
A|------------------------------------------------------------|
E|------------------------------------------------------------|
Tap to rate this tab
 
# A B C D E F G H I J K L M N O P Q R S T U V W X Y Z