Song name
# A B C D E F G H I J K L M N O P Q R S T U V W X Y Z

Color Miss Kensington - Nightmares tab

Help us improve GuitareTab! Take a short survey!
Song: Nightmares
By: The color miss kensington\
this song is cool and its in Dropped D tuning

Intro and verse(there is no distortion in the begining but there
is during the verse

E--------------------------------------------------|
B--------------------------------------------------|
G--------------------------------------------------|
D--------------------------------------------------|x8
A--------------------------------------------------|
D-7-2-9-10-9-7-2-2-10-9-7-2-9-10-9-7---------------|

Chorus
E--------------------------------------------------|
B--------------------------------------------------|
G--------------------------------------------------|
D--7-2-9-10-9-7-2-2-3-2-7-2-2-0-2-2-3-3-5----------| x2
A--7-2-9-10-9-7-2-2-3-2-7-2-2-0-2-2-3-3-5----------|
D--7-2-9-10-9-7-2-2-3-2-7-2-2-0-2-2-3-3-5----------|

Solo(use a wah)

E-5-0-7-8-7-5-0-0-1-0-5-0-7-8-7-5-0-0---------1-1-3-5-0-7-8-7-5-|
B-------------------------------------3-3-5-5-------------------|
G---------------------------------------------------------------|x2
D---------------------------------------------------------------|
A---------------------------------------------------------------|
D---------------------------------------------------------------|

The order of song goes

intro
verse
chorus
intro
verse
Chorus
solo Chorus
Related for Nightmares tab