Song name
# A B C D E F G H I J K L M N O P Q R S T U V W X Y Z

Colornoise - Indoors chords

Highlighted       Show chord diagrams
Banda: Colornoise
Cancion: Indoors (2010)


Acordes que se usan.
  C5    A#5   G#5   F5 
|---------------------------------------------------|
|---------------------------------------------------|
|---------------------------------------------------|
|---------------------------------------------------|
|--10----8-----6-----3------------------------------|
|--8-----6-----4-----1------------------------------|



Intro

    C5                 A#5

   /      /      /      /   El tiempo del compas.
|---------------------------------------------------|
|---------------------------------------------------|   
|---------------------------------------------------| x4
|---------------------------------------------------|
|--10--10-10-10-10--10/8/10-------------------------|
|--8---8--8--8---8---8/6/-8-------------------------|



Verso

G#5         F5  
  In your town 
F5            G#5
  There's a hole 
G#5          F5
  In your town 


Coro

Lleva la misma progresión que la intro.

C5         A#5
  Indoors
C5         A#5    
  In holes
C5         A#5 
  Indoors
C5         A#5-C5 
  Your home



Verso

G#5         F5  
  In your town 
F5            G#5
  There's a hole 
G#5          F5
  In your town 


Coro

C5         A#5
  Indoors
C5         A#5    
  In holes
C5         A#5 
  Indoors
C5         A#5-C5 
  Your home


Parte Final

G#5 - F5


 Y esto después de los acordes.
|---------------------------------------------------|
|---------------------------------------------------|
|---------------------------------------------------|
|---------------------------------------------------|
|-----------------3v--------------------------------|
|--4-4-4v-----1-1-----------------------------------|


http://colornoise.bandcamp.com/
Tap to rate this tab
 
# A B C D E F G H I J K L M N O P Q R S T U V W X Y Z