Song name
# A B C D E F G H I J K L M N O P Q R S T U V W X Y Z

Colour Haze - Get It On tab

-------------------------------------------------------------------------------
			     GET IT ON - Colour Haze
-------------------------------------------------------------------------------
Tabbed by: Meuwh
Email: -

Tuning: C - G - C - F - A - D

D|---------------------------------------------------------------------------| x 4
A|---------------------------------------------------------------------------|
F|------14-14-14-------------------------------------------------------------|
C|-12-x-12-12-12-x-15-15-15-x------------12-14b15-12-14----------------------|
G|-12-x-12-12-12-x-12-12-12-x-15-15-15-x-12-12-------12----------------------|
C|-12-x-12-12-12-x-12-12-12-x-12-12-12-x-12-12-------------------------------|


               Singing starts
D|---------------------------------------------------------------------------| x 4
A|---------------------------------------------------------------------------|
F|------14-14-14-------------------------------------------------------------|
C|-12-x-12-12-12-x-15-15-15-x------------12-14b15-12-14----------------------|
G|-12-x-12-12-12-x-12-12-12-x-15-15-15-x-12-12-------12----------------------|
C|-12-x-12-12-12-x-12-12-12-x-12-12-12-x-12-12-------------------------------|


  verse
D|---------------------------------------------------------------------------|
A|---------------------------------------------------------------------------|
F|---------------------------------------------------------------------------|
C|-10-10-10-9-9-9-9-9-10-10-10-9-10-9-12-12-12-12-12-14-14-14-14-14----------|
G|-8--8--8--7-7-7-7-7-8--8--8--7-8--7-12-12-12-12-12-12-12-12-12-12----------|
C|-8--8--8--7-7-7-7-7-8--8--8--7-8--7-12-12-12-12-12-12-12-12-12-12----------|

D|---------------------------------------------------------------------------| x 2
A|---------------------------------------------------------------------------|
F|-------------------------------14b~----------------------------------------|
C|-15-15-15-15-15-17-17-17-17-17-12------------------------------------------|
G|-12-12-12-12-12-12-12-12-12-12-12------------------------------------------|
C|-12-12-12-12-12-12-12-12-12-12-12------------------------------------------|

D|---------------------------------------------------------------------------| x 2
A|---------------------------------------------------------------------------|
F|------14-14-14-------------------------------------------------------------|
C|-12-x-12-12-12-x-15-15-15-x------------12-14b15-12-14----------------------|
G|-12-x-12-12-12-x-12-12-12-x-15-15-15-x-12-12-------12----------------------|
C|-12-x-12-12-12-x-12-12-12-x-12-12-12-x-12-12-------------------------------|


               Singing starts
D|---------------------------------------------------------------------------| x 4
A|---------------------------------------------------------------------------|
F|------14-14-14-------------------------------------------------------------|
C|-12-x-12-12-12-x-15-15-15-x------------12-14b15-12-14----------------------|
G|-12-x-12-12-12-x-12-12-12-x-15-15-15-x-12-12-------12----------------------|
C|-12-x-12-12-12-x-12-12-12-x-12-12-12-x-12-12-------------------------------|


  verse
D|---------------------------------------------------------------------------|
A|---------------------------------------------------------------------------|
F|---------------------------------------------------------------------------|
C|-10-10-10-9-9-9-9-9-10-10-10-9-10-9-12-12-12-12-12-14-14-14-14-14----------|
G|-8--8--8--7-7-7-7-7-8--8--8--7-8--7-12-12-12-12-12-12-12-12-12-12----------|
C|-8--8--8--7-7-7-7-7-8--8--8--7-8--7-12-12-12-12-12-12-12-12-12-12----------|

D|---------------------------------------------------------------------------| x 2
A|---------------------------------------------------------------------------|
F|-------------------------------14b~----------------------------------------|
C|-15-15-15-15-15-17-17-17-17-17-12------------------------------------------|
G|-12-12-12-12-12-12-12-12-12-12-12------------------------------------------|
C|-12-12-12-12-12-12-12-12-12-12-12------------------------------------------|

D|---------------------------------------------------------------------------| x 1
A|---------------------------------------------------------------------------|
F|------14-14-14-------------------------------------------------------------|
C|-12-x-12-12-12-x-15-15-15-x------------12-14b15-12-14----------------------|
G|-12-x-12-12-12-x-12-12-12-x-15-15-15-x-12-12-------12----------------------|
C|-12-x-12-12-12-x-12-12-12-x-12-12-12-x-12-12-------------------------------|


               Singing starts
D|---------------------------------------------------------------------------| x 6
A|---------------------------------------------------------------------------|
F|------14-14-14-------------------------------------------------------------|
C|-12-x-12-12-12-x-15-15-15-x------------12-14b15-12-14----------------------|
G|-12-x-12-12-12-x-12-12-12-x-15-15-15-x-12-12-------12----------------------|
C|-12-x-12-12-12-x-12-12-12-x-12-12-12-x-12-12-------------------------------|


************************************

| /   slide up
| \   slide down
| h   hammer-on
| p   pull-off
| ~   vibrato
| +   harmonic
| x   Mute note
| b   Bend
| pb  Pre-bend
| br  Bend release
| pbr Pre-bend release
| brb Bend release bend

************************************
Tap to rate this tab
# A B C D E F G H I J K L M N O P Q R S T U V W X Y Z