Song name
# A B C D E F G H I J K L M N O P Q R S T U V W X Y Z

Colour Revolt - Mattresses Underwater tab

I took this from one I have found around on the web, but changed it to make it sound 
like the EP.

Normal Tuning

|-----------------------------------------------------------------|
|11----11----11----11----13----13----13----13---------------------|
|---12----12----12----12----12----12----12----12------------------|
|-----------------------------------------------------------------|
|-----------------------------------------------------------------|
|-----------------------------------------------------------------|

|-----------------------------------------------------------------|
|11----11----11----11-------11----11----11----11------------------|
|---12----12----12----12-14----14----14----14---------------------|
|-----------------------------------------------------------------|
|-----------------------------------------------------------------|
|-----------------------------------------------------------------|
                                                                 x6


|-----------------------------------------------------------------|
|11------13--10b---------11------13--10b--------------------------|
|----12-----------7---------12------------7-----------------------|
|-----------------------------------------------------------------|
|-----------------------------------------------------------------|
|-----------------------------------------------------------------|

http://www.colourrevolt.com
http://myspace.com/colourrevolt
Tap to rate this tab
# A B C D E F G H I J K L M N O P Q R S T U V W X Y Z