Song name
# A B C D E F G H I J K L M N O P Q R S T U V W X Y Z

Colt Ford - Dirt Road Anthem tab

        Dirt Road Anthem 
        by Colt Ford & Brantley Gilbert


  4/4 time, 130bpm

  [Let Ring Throughout]

  Intro/Verse                                                              2x
e||------------------|--0-------0---0-|-----------------|--0-(0)-------0----||
b||@-----------------|--3---3---3---3-|-----------------|--3-(3)---3---3---@||
G||------------0---0h|2---2-0h2---2---|-----------0---0h|2-------2-0h2---2--||
D||@-2h4-2-------0-0-|----------------|-2h4-2-------0-0-|------------------@||
A||--2-----2---------|----------------|-2-----2---------|-------------------||
E||----------3-------|----------------|---------3-------|-------------------||


  
  Chorus                                                                    4x
e||------------------|--0-------0---0-|-----------------|--0-(0)-------------||
b||@-----------------|--3---3---3---3-|-----------------|--3-(3)------------@||
G||------------0---0h|2---2-0h2---2---|-----------0---0h|2-------2p0---------||
D||@-2h4-2-------0-0-|----------------|-2h4-2-------0-0-|-----------4-2-0---@||
A||--2-----2---------|----------------|-2-----2---------|-----------------2--||
E||----------3-------|----------------|---------3-------|--------------------||


  Verse 4x

  Chorus 4x

  Verse 4x

  Chorus till End


Legend:

h = hammer
s = slide
p = pull-off
() = let note(s) ring

|@
|   = repeat
|@


tab by fasthandsdan, and dedicated to my late cousin, treading up the dirt road to heaven. RIP
Tap to rate this tab
# A B C D E F G H I J K L M N O P Q R S T U V W X Y Z