Song name
# A B C D E F G H I J K L M N O P Q R S T U V W X Y Z

Colton Dixon - You Are chords

Highlighted       Show chord diagrams
"You Are" by Colton Dixon

K-LOVE ~ LIVE

Standard tuning

Intro:

e|--------------------|
b|--1-1-1-1-0-0-0-0---|
g|---0-0-0-0-0-0-0-0--|    x2
d|--------------------|
a|--------------------|
E|--------------------|


Verse 1:
e|--------------------|
b|--1-1-1-1-0-0-0-0---|
g|---0-0-0-0-0-0-0-0--|    
d|--------------------|  x4 (once for each line)
a|--------------------|
E|--------------------|

When I canít find the words to say how much it hurts 

You are the healing in my heart

When all that I can see are broken memories 

You are the light thatís in the dark 

Chorus: 
F
You are the song,
            Am       G
You are the song Iím singing. 
F
You are the air, 
            Am      G
You are the air Iím breathing 
F
You are the hope, 
            Am     G
You are the hope I needed. 
F    Am G
Woah oh oh

You are

e|--------------------|
b|--1-1-1-1-0-0-0-0---|
g|---0-0-0-0-0-0-0-0--|    
d|--------------------|
a|--------------------|
E|--------------------|

Verse 2: 
e|--------------------|
b|--1-1-1-1-0-0-0-0---|
g|---0-0-0-0-0-0-0-0--|    
d|--------------------|  x4 (once for each line)
a|--------------------|
E|--------------------|

And when the circumstance leaves me with empty hands. 

You're the provider of my needs. 

When all my dirtiness has left me helpless. 

You are the rain that washes me. 

(Chorus x2)

Bridge: 
     C
If I had no voice,
     F 
If I had no tongue,
        Am                     G 
I would dance for you like the rising sun.
         C                    F 
And when that day comes and I see your face.
       Am                 G 
I will shout your endless glorious praise.  x2 (1st time soft, 2nd time loud)

(Chorus x2)
Tap to rate this tab
# A B C D E F G H I J K L M N O P Q R S T U V W X Y Z