Song name
# A B C D E F G H I J K L M N O P Q R S T U V W X Y Z

Colton Dixon - In And Out Of Time tab

Piano part on guitar:

e|-----------------------------------------------------------------|
B|-----------------------------------------------------------------|
G|-3---3---3---3-5-7---7---7---7-8-5---5---8---7---3---3---3---3---|
D|---5---5---5------ 8---8---8-------6---6---6---6---5---5---5---5-|  (x2)
A|-----------------------------------------------------------------|
E|-----------------------------------------------------------------|
The second time, just fade out with the  G|--5----|
                                         D|----6--|
During the beginning drum break, you just play I higher Gm. 
and you can listen to the song for the rhythm:
e|-10
B|-11
G|-12
D|-12
A|-10
E|-x

Then you slide down the E string from the tenth fret and 
your ready to start the cool guitar riff:

e|----------------------------------------------------------|
B|----------------------------------------------------------|
G|----------------------------------------------------------|
D|-----------5-5-7-7-8-8-7-7-5-5-------5-5-----------5-5----|
A|--------5-5-------------------3-3-6-6---6-6-2-2-5-5---5-5-|
E|-3-3-6-6--------------------------------------------------|

e|------------------------------------------------------------|
B|----------1-1-3-3-4-4-3-3-1-1-------------------------------|
G|-------3-3----------------------0-0-2-2-3-3-5-5-3-3-2-2-0-0-|
D|----3-3----------------------4-4----------------------------|  (x2)
A|-1-1--------------------------------------------------------|
E|------------------------------------------------------------|

Verse:

G#m       Bb
Future is waiting
    G#             G#m
Hes always pulling me
    Gm              Bb
And present's worth saving
        G#               Gm
But the past is haunting me

Chorus:

D#                  Bb
I wanna live out of time
                     F                    
But I know it could run out
          Cm
It could run out on me
D#                  Bb
I wanna love out of time
                F                Cm
Wanna turn it around before it comes down on me
D#              Bb     
Find a way to rewind it
Bm        Cm    
Stop it, deny it
D#                  Bb                        F
I wanna live in the light but I know that I'm fallin'
    Cm
I'm fallin' in and out of time

~Cool Guitar riff x2~

Verse 2:

Time, you confuse me
 You own every day
 Patience, please heal me
Come take me away

~Chorus~

Bridge:
     Gm   D#   Gm
Time heals the fallin'
Cm  Gm D#   Cm  Dm
I hear the callin'
     Gm   D#   Gm
Clock strikes the hour
Cm   Gm  D#      Cm  Dm
Don't run, don't cower
      Gm       D#
Time heals the fallin'
  Gm       Cm  Dm
I hear the callin'

~Guitar Riff~
~Chorus~

Outro:

Start with that breakdown with the high Gm.
then heres the over lapping guitar part.Its dotted 
Quarter notes! but im just giving the basics and 
you can go by the song

e|-3---7---10--13---15---18---20---21\--|
B|-x---x---x---x----x----x----x-----x\--|
G|-0---3---7---10---12---15---17---18\--|
Tap to rate this tab
 
# A B C D E F G H I J K L M N O P Q R S T U V W X Y Z