Guitaretab - guitar tabs
Song name
# A B C D E F G H I J K L M N O P Q R S T U V W X Y Z

Coltrane John - Naima tab

Just the main hooks and riffs again.  Improvise as you please. 

Tuning low to high:  E, B, E, G#, B, E 

E -------------------------9-------------------------------------|
B --9 / 11~~~~~----7 / 9-----------------------------------------|
G#---------------------------7/9~~~~~--10/12~~~~-----------------|
E ---------------------------------------------------------------|
B ---------------------------------------------------------------|
E ---------------------------------------------------------------|

E ---------------------------------------------------------------|
B ---------------------------------------------------------------|
G#--10/12\10---7 / 10 \ 7~~~~------------------------------------|
E ---------------------------------------------------------------|
B ---------------------------------------------------------------|
E ---------------------------------------------------------------|

E -------------------------9-------------------------------------|
B --9 / 11~~~~~----7 / 9-----------------------------------------|
G#---------------------------7/9~~~~~--10/12~~~~-----------------|
E ---------------------------------------------------------------|
B ---------------------------------------------------------------|
E ---------------------------------------------------------------|
[ Tab from: http://www.guitaretab.com/c/coltrane-john/3849.html ]
E ---------------------------------------------------------------|
B ---------------------------------------------------------------|
G#--10/12\10---7 / 10 \ 7~~~~------------------------------------|
E ---------------------------------------------------------------|
B ---------------------------------------------------------------|
E ---------------------------------------------------------------|

E ---------------------------------------------------------------|
B ---------7/9~~~--9-9\6~~~-------7/9~~~---9-9\6~~~~-------------|
G#--7-7--------------------5/7-----------------------------------|
E ---------------------------------------------------------------|
B ---------------------------------------------------------------|
E ---------------------------------------------------------------|

E ---------------------------------------------------------------| 
B --------9 / 12~~---9/12\9~~---6/9\6~~~-------------------------|
G#--7\5-----------------------------------5 / 9 \ 5~~~-----------|
E ---------------------------------------------------------------|
B ---------------------------------------------------------------|
E ---------------------------------------------------------------|

PART IN UPPER REGISTER 

E -16/18~~~-------21-------------16~~~--14/16\14--11/14~~\11~~~--|
B ------------21-------16/18~~-----------------------------------|
G#---------------------------------------------------------------|
E ---------------------------------------------------------------|
B ---------------------------------------------------------------|
E ---------------------------------------------------------------|

BREAKDOWN PART 

E ---------------------------------------------------------------|
B ---------------------------------------------------------------|
G#--------------------------------------------------3------------|
E ---4 p 2-------4-2------2 p 0-------------------------4--------|
B ----------4---------3----------2----1-2-3--2-3-4---------------|
E ---------------------------------------------------------------|

Related for Naima tab