Song name
# A B C D E F G H I J K L M N O P Q R S T U V W X Y Z

Colvin Shawn - Diamond In The Rough tab

i couldn't find a tab with this solo in so i made one...
i have put how far through the song we are above each 'phrase'
(if thats the right word) to help you learn it.
tuning-standard

  1:52
e|----------------------|
B|----------------------|
G|-9b----9-11-9-9-10-9-8|
D|----------------------|
A|----------------------|
E|----------------------|

  1:55
e|----------------------|
B|----------------------|
G|-9-9-9--9-11-9-10-9-8-|
D|----------------------|
A|----------------------|
E|----------------------|

  1:58
e|-------9-9-9----------------|
B|------------9-11-9-9-10-9-8-|
G|-(x/)-----------------------|
D|----------------------------|
A|----------------------------|
E|----------------------------|

  2:02
e|-99-9-9-9-------------|
B|----------9-11-9-10-8-|
G|----------------------|
D|----------------------|
A|----------------------|
E|----------------------|

  2:06
e|----------12-12-|
B|-12-13-12-------|
G|----------------|
D|----------------|
A|----------------|
E|----------------|

  2:07
e|--------12-10h12p11-|
B|-9-10-9-------------|
G|--------------------|
D|--------------------|
A|--------------------|
E|--------------------|

  2:09
e|-798101179810117981011798101112v-----------------------------------------|
B|-------------------------------------------------------------------------|
G|-------------------------------------------------------------------------|
D|-------------------------------------------------------------------------|
A|-------------------------------------------------------------------------|
E|-------------------------------------------------------------------------|
Tap to rate this tab
# A B C D E F G H I J K L M N O P Q R S T U V W X Y Z