Song name
# A B C D E F G H I J K L M N O P Q R S T U V W X Y Z

Comas - Fainter tab

e|----------------------------------------------|
B|--8--8----8--8----8--8----8--8/12-[-8--8/12]--|
G|-0--0----0--0----0--0----0--0-----[0--0----]--|
D|----------------------------------------------|
A|----------------------------------------------|
E|----------------------------------------------|  X6
                  add notes in [ ] the second time played (evens)

verse;
e|-----------------------------------------------------|
B|-8------------8-----------8--------8--8/12---8--8/12-|
G|--------------7-----------9-------0------------------|
D|-----------------------------------------------------|
A|-----------------------------------------------------|
E|-----------------------------------------------------|  X2

chorus:
e|---------------8----------7-----------------10-----7------8---10----|
B|---8------8------8-----8----8----8----8-------8------8--8---8----10-|
G|-0----0-0------5-----0----0----0----0----0--0----0-0----------------|
D|---------------5----------------------------------------------------|
A|--------------------------------------------------------------------|
E|--------------------------------------------------------------------| X2

solo:
e|------------------------------------------|
B|------------------------------------------|
G|---4--------7-------------4~-4~--[--4--4]-|
D|-5----5-5/7----7/9-5----5---5----[5-----]-|
A|------------------------------------------|
E|------------------------------------------|  X4
                 ~ - bend the note     play [ ] last time

verse:  X 4

chorus: X 2

solo:  X 4
add this to last time played as the end:
B|---------7-3-|
G|---4-5-7---4-|
D|-5---------5-|
Tap to rate this tab
 
# A B C D E F G H I J K L M N O P Q R S T U V W X Y Z