Song name
# A B C D E F G H I J K L M N O P Q R S T U V W X Y Z

Combat 84 - Rapist tab

INTROx2
e|---------------------------------------------------------------------------|
B|---------------------------------------------------------------------------|
G|--------7------------------------------------------------------------------|
D|------7----7-------9-----------4----------5--------------------------------|
A|----5-------5----9---9-------4---4------5---5------------------------------|
E|---------------7-------7---2-------2--3-------3----------------------------|

   VERSE
e|---------------------------------------------------------------------------|
B|---------------------------------------------------------------------------|
G|--7------------------------------------------------------------------------|
D|--7--9--4--5---------------------------------------------------------------|
A|--5--9--4--5---------------------------------------------------------------|
E|-----7--2--3---------------------------------------------------------------|

    Chorus all palm muted
e|---------------------------------------------------------------------------|
B|---------------------------------------------------------------------------|
G|---7-----------------------------------------------------------------------|
D|---7--9--4--5--------------------------------------------------------------|
A|---5--9--4--5--------------------------------------------------------------|
E|------7--2--3--------------------------------------------------------------|

not seen a combat 84 tab befor so here ya go not hard atal
any feed back or changes please feel free to contact me at shit_balls296@hotmail.com
Cheers
George
Tap to rate this tab
# A B C D E F G H I J K L M N O P Q R S T U V W X Y Z