Song name
# A B C D E F G H I J K L M N O P Q R S T U V W X Y Z

Combichrist - No Redemption tab

NO REDEMPTION - COMBICHRIST

This song is off the Devil May Cry soundtrack. This is my first tab I've writted, and it 
was tabbed by ear, so I'm not entirely sure how accurate this is, but it works for me.

Tuning: Drop C (CGCFAD)


*= Palm mute





Intro

D|--------------------------------------------------|
A|--------------------------------------------------|
F|--------------------------------------------------|
C|0--------------4-------3-------------------------0|
G|0--------------4-------3-------------------------0|
C|0--------------4-------3-------------------------0|



D|------------------------------------------------|
A|------------------------------------------------|
F|------------------------------------------------|
C|------------------------------------------------|
G|------------------------------------------------|
C|0--0--0--0--0--0--0--0--0--0--0--0--0--0--0--0--|
  *  *  *  *  *  *  *  *  *  *  *  *  *  *  *  *

D|-----------------------------------------------|
A|-----------------------------------------------|
F|-----------------------------------------------|
C|----------------------------------------------0|
G|------------0--0------------------------------0|
C|------------0--0------------------------------0|
              *  *

D|--------------------|
A|--------------------|
F|--------------------|
C|--------------------|
G|---------5--------6-|
C|-0--000-----7--0----|
   *  ***        *






Main Riff


D|-----------------------------------------------|
A|-----------------------------------------------|
F|-----------------------------------------------|  x4
C|--8--7-------------------8--7-----10-8----8--7-|
G|--6--5-------------------6--5-----8--6----6--5-|
C|--------0--000--0--0--0--------0-------0-------|
          *  ***  *  *  *        *       *








Breakdown

D|------------|
A|------------|
F|------------|
C|-1--0--3--1-|
G|-1--0--3--1-| x4
C|-1--0--3--1-|
   *  *  *  *


D|-----------------------------------------------------------|
A|-----------------------------------------------------------|
F|-----------------------------------------------------------|
C|-----------------------------------------------------------| x4
G|-1--0-0-0-0-2--0-0-0-0-1--0-0-0-0-2--0-0-0-0-1--0-0-2--0-0-|
C|-----------------------------------------------------------|
      * * * *    * * * *    * * * *    * * * *    * *    * *





Main Riff 2

D|-----------------------------------------------|
A|-----------------------------------------------|
F|-----------------------------------------------|  x4
C|--8--7-------------------8--7-----10-8----8--7-|
G|--6--5-------------------6--5-----8--6----6--5-|
C|--------0--000--0--0--0--------0-------0-------|
          *  ***  *  *  *        *       *

D|--------------------|
A|--------------------|
F|--------------------|
C|--------------------|
G|---------5--------6-|   (Do both of these riffs twice)
C|-0--000-----7--0----|
   *  ***        *







Final Riff

D|-----------------------------------------------------|
A|-----------------------------------------------------|
F|-----------------------------------------------------|
C|-----------------------------------------------------|   x4
G|-----------------------------------------------------|
C|-1--0----0----0----0--1--0----0----0----0----0--1--0-|


D|----------------------------------------|
A|----------------------------------------|
F|----------------------------------------| x8
C|-1--0----0--------1--0----0--------1--0-|
G|-1--0----0--0--0--1--0----0--0--0--1--0-|
C|-1--0----0--0--0--1--0----0--0--0--1--0-|
              *  *             *  *






Outro

D|-----------------------------------------------|
A|-----------------------------------------------|
F|-----------------------------------------------|
C|-3--------------------------------8--7---------|
G|-3--------------------------------6--5---------|
C|-3--------------------------------------0--000-|
                                          *  ***

Have fun shredding to this awesome song :)

if you have any questions, you can email me at chrisbentley7426@gmail.com
Tap to rate this tab
# A B C D E F G H I J K L M N O P Q R S T U V W X Y Z