Song name
# A B C D E F G H I J K L M N O P Q R S T U V W X Y Z

Combustible Edison - Spy Vs Spy tab

Combustible Edison - Spy vs. Spy
Tuning: Standard
Comments: david_couture@hotmail.com

-------------------------------------------------------------------|
-------------------------------------------------------------------|
-------------------------------------------------------------------|
------------3----2--1-------0--------------------------------------|
0--0--3--0---------------2-----------------------------------------|
-------------------------------------------------------------------|

-------------------------------------------------------------------|
-------------------------------------------------------------------|
-------------------------------------------------------------------|
------------5----4--3----2--0--------------------------------------|
0--0--3--0---------------------2-----------------------------------|
-------------------------------------------------------------------|

-------------------------------------------------------------------|
-------------------------------------------------------------------|
------1-----5----4h5p4--1-----2------------------------------------|
2--2-----2-----------------2-----2-----------5--3--2---------------|
------------------------------------3--2--0-----------2------------|
-------------------------------------------------------------------|

-------------------------------------------------------------------|
-------------------------------------------------------------------|
-------------------------------------------------------------------|
----------2--1--2-------------------------3----2--1-------0--------|
5--5/2-------------3--2--0----0--0--3--0---------------2-----------|
-------------------------------------------------------------------|

-------------------------------------------------------------------|
-------------------------------------------------------------------|
-------------------------------------------------------------------|
--------------------------5--5--5--4--3--3--2--0-------------------|
---------0----0--0--3--0--------------------------2-----2----------|
0--3--4----------------------------------------------4-----0-------|

-------------------------------------------------------------------|
-------------------------------------------------------------------|
---1-----5----4h5p4--1-----2---------------------------------------|
2-----2-----------------2-----2-----------5--3--2--0---------------|
---------------------------------3--2--0--------------2------------|
-------------------------------------------------------------------|

-------------------------------------------------------------0--0--|
-------------------------------------------------------1--1--1--1--|
-------------------------------------------------2--2--2--2--2--2--|
---0----0--0--0----------------2--1--2-----------2--2--2--2--2--2--|
2----------------4--3--2----------------3--2--0--0--0--0--0--0--0--|
----------------------------0--------------------------------------|

Non-guitar part:

------------0--5--6----5--0----5--0--1-------------0--1--3--5--7---|
---0--1--3------------------------------3--3----3------------------|
2------------------------------------------------------------------|
-------------------------------------------------------------------|
-------------------------------------------------------------------|
-------------------------------------------------------------------|

8----7--2----7--2--3----0--2--3--5--7------------------------------|
-------------------------------------------------------------------|
-------------------------------------------------------------------|
-------------------------------------------------------------------|
-------------------------------------------------------------------|
-------------------------------------------------------------------|

11--10--11--8--10--8-----------------------------------------------|
-------------------------------------------------------------------|  Repeat 4x
-------------------------------------------------------------------|
-------------------------------------------------------------------|
-------------------------------------------------------------------|
-------------------------------------------------------------------|

14----11--8--2--1--------------------------------------------------|
-------------------4--3--------------------------------------------|
-------------------------------------------------------------------|
--------------------------------------------------2--1--2----------|  --- Guitar starts
-----------------------------------------------------------3--2----|      again at the 2
-------------------------------------------------------------------|

-------------------------------------------------------------------|
-------------------------------------------------------------------|
-------------------------------------------------------------------|
---------------3----2--1-------0-----------------------------------|
0--0--0--3--0---------------2--------------------------------------|
-------------------------------------------------------------------|

-------------------------------------------------------------------|
-------------------------------------------------------------------|
-----------------------------------------------------1-------------|
--------------------5--5--5--4--3--3--5--3--2--0--2----------------|
-----0--0--0--3--0-------------------------------------------2-----|
3h4-------------------------------------------------------4-----0--|

-------------------------------------------------------------------|
-------------------------------------------------------------------|
---1-----5----4h5p4--1-----2---------------------------------------|
2-----2-----------------2-----2--------------5--3--2--0------------|
---------------------------------3--2--0--3--------------2---------|
-------------------------------------------------------------------|

-------------------------------------------------------------0-0---|
---------------------------------------------------------1-1-1-1---|
-----------------------------------------------------2-2-2-2-2-2---|
------0----0--0----------------2--1--2-----------2-2-2-2-2-2-2-2---|
0--2-------------4--3--2----------------3--2--0--0-0-0-0-0-0-0-0---|
----------------------------0--------------------------------------|

Repeat non-guitar part

Harpsichord plays, then:

(Distortion)

-------------------------------------------------------------------|
-------------------------------------------------------------------|
--------------------2-2-3----2-----2-------------------------------|
------------0-0-2-2-------------2-----2--3--0--0-------------------|
0-0-2-2-3-3--------------------------------------------------------|
-------------------------------------------------------------------|

------------------------------------7--12--7----12--7--3p0---------|
---------------1----0---------------------------------------1--3---|
---------2--4---------------4--------------------------------------|
0--2--3----------------4-------5-----------------------------------|
-------------------------------------------------------------------|
-------------------------------------------------------------------|

-------------------------------------------------------------------|
4--3--4--1--3--1---------------------------------------------------|
-------------------------------------------------------------------| Repeat 4x
-------------------------------------------------------------------|
-------------------------------------------------------------------|
-------------------------------------------------------------------|

2-2-2-2-2-2--------------------------------------------------------|
-------------4--1--------------------------------------------------|
-------------------------------------------------------------------|
-------------------4--3--1-----------------------------------------|
----------------------------5--------------------------------------|
-------------------------------------------------------------------|

-------------------------------------------------------------------|
-------------------------------------------------------------------|
-------------------------------------------------------------------|
3----2-------------------------------------------------------------|
----------0--------------------------------------------------------|
-------------------------------------------------------------------|
Tap to rate this tab
 
# A B C D E F G H I J K L M N O P Q R S T U V W X Y Z