Song name
# A B C D E F G H I J K L M N O P Q R S T U V W X Y Z

Come Miss Coma - Oceans tab

This is a song from my band Come Miss Coma, you can check us out on youtube: 
www.youtube.com/comemisscoma.
Did this song cuz its one of the easiest, I'll probably put up the tabs of the other
songs aswell in the near future.

Tuning: C#

Intro/Chorus:
--------------------------------------------------------------|
--------------------------------------------------------------|
--------------------------------------------------------------|
0---2---4---6-------------------------------------------------|
0---2---4---6-------------------------------------------------|
0---2-------6-------------------------------------------------|

Verse 1:
---------------------------------------------------------------|
---------------------------------------------------------------|
---------------------------------------------------------------|
0---2---4---2--------------------------------------------------|
0---2---4---2--------------------------------------------------|
0---2---4---2--------------------------------------------------|x2

----------------------------------------------------------------|
----------------------------------------------------------------|
----------------------------------------------------------------|
0------2------4------2------------------------------------------|
000000-222222-444444-222222-------------------------------------|
000000-222222-444444-222222-------------------------------------|x2
 *****  *****  *****  *****

Verse 2:

--------------------------------------------------------------|
--------------------------------------------------------------|
----------------------------------------------------11111111--|
4444444-22222222------------------44444444-22222222-----------|
-----------------4444444-22222222-----------------------------|
--------------------------------------------------------------|

--------------------------------------------------------------|
--------------------------------------------------------------|
--------------------------------------------------------------|
44444444-44444444-222222222-----------------------------------|
----------------------------4444444-22222222------------------|
--------------------------------------------------------------|

--------------------------------------------------------------|
--------------------------------------------------------------|
--------------------------------------------------------------|
0----2----4----6666-------------------------------------------|
0----2----4----6666-------------------------------------------|
0----2----4----6666-------------------------------------------|

Chorus
Verse 1
Verse 2
Chorus

Bridge:

--------------------------------------------------------------|
--------------------------------------------------------------|
--------------------------------------------------------------|
--------------------------------------------------------------|
00000000-22222222-44444444-44444444---------------------------|
00000000-22222222-44444444-44444444---------------------------|
******** ******** ******** ********

Chorus

The End. Enjoy.

www.comemisscoma.com
Tap to rate this tab
 
# A B C D E F G H I J K L M N O P Q R S T U V W X Y Z