Song name
# A B C D E F G H I J K L M N O P Q R S T U V W X Y Z

Come Wind - Midas tab

Come Wind is an unsigned band under Red Lotus Management Company with two EP's 
released. https://www.facebook.com/ComeWind

Standard Tuning

[0:00]-[0:12]
|----------------------------6-6-6-6---------6--|
|--6-6-xxxxxxx-6--------8----8-8-8-8-xxxxxxx-8--|
|--7-7-xxxxxxx-7-5/7-10---6--7-7-7-7-xxxxxxx-7--|
|--7-7-xxxxxxx-7---------------------xxxxxxx----|
|-----------------------------------------------|
|-----------------------------------------------|
|
|----------------------------6-6-6-6--66666666--|
|--6-6-xxxxxxx-6--------8----8-8-8-8--88888888--|
|--7-7-xxxxxxx-7-5/7-10---6--7-7-7-7--77777777--|
|--7-7-xxxxxxx-7--------------------------------|
|-----------------------------------------------|
|-----------------------------------------------|

CHORUS

[0:12]-[0:35]
|--------------------------------------------------------|
|--------66----------66----------55-----5p0-5p0-5p0-5p0--|
|--------------------------------------------------------|
|-----77----77----77----77----55----5/7------------------|
|--55----------55----------44----------------------------|
|--------------------------------------------------------|
|
|------------------------------------------------------------------------------------------|
|--8-8-10-8-8-10-8-8--8-8-10-8-8-10-8-8--10-10-11-10-10-11-10-10--10-10-13-10-10-13-10-10--|
|------------------------------------------------------------------------------------------|
|------------------------------------------------------------------------------------------|
|------------------------------------------------------------------------------------------|
|------------------------------------------------------------------------------------------|
|
|x2

[0:35]-[1:00]
|--17p13----13\10----------------------------------------------|
|--------15-------13\10-8/10-13p10-8\6-3/6--6-6-6-6------------|
|-------------------------------------------7-7-7-7-6666-6666--|
|-------------------------------------------7-7-7-7-7777-7777--|
|---------------------------------------------------7777-7777--|
|--------------------------------------------------------------|
|
|x4

[1:00]-[1:23]
|------------------------------------6-6-6-6----------------------|
|--6-6--1010-66-----------------8----8-8-8-8--1111-88-------------|
|--7-7----------1010-----5/7-10---6--7-7-7-7----------1010--------|
|--7-7--------------7-------------------------------------8-------|
|-----------------------------------------------------------------|
|-----------------------------------------------------------------|
|pm     . .  .. . . .                         . .  .. . . .
|
|------------------------------------6-6-6-6---------------|
|--6-6--1010-66-----------------8----8-8-8-8---------------|
|--7-7----------1010-----5/7-10---6--7-7-7-7---------------|
|--7-7--------------7--------------------------------------|
|----------------------------------------------------------|
|----------------------------------------------------------|
|pm     . .  .. . . .
|
|------------------------------------6-6-6-6~--------------|
|--6-6--1010-66-----------------8----8-8-8-8~--------------|
|--7-7----------1010-----5/7-10---6--7-7-7-7~--------------|
|--7-7--------------7--------------------------------------|
|----------------------------------------------------------|
|----------------------------------------------------------|
|pm     . .  .. . . .
|
|------------------------------------6-6-6-6-6666-6666-----|
|--6-6--1010-66-----------------8----8-8-8-8-8888-8888-----|
|--7-7----------1010-----5/7-10---6--7-7-7-7-8888-8888-----|
|--7-7--------------7--------------------------------------|
|----------------------------------------------------------|
|----------------------------------------------------------|
|pm     . .  .. . . .

CHORUS

[1:23]-[1:48]
|--------------------------------------------------------|
|--------66----------66----------55-----5p0-5p0-5p0-5p0--|
|--------------------------------------------------------|
|-----77----77----77----77----55----5/7------------------|
|--55----------55----------44----------------------------|
|--------------------------------------------------------|
|
|------------------------------------------------------------------------------------------|
|--8-8-10-8-8-10-8-8--8-8-10-8-8-10-8-8--10-10-11-10-10-11-10-10--10-10-13-10-10-13-10-10--|
|------------------------------------------------------------------------------------------|
|------------------------------------------------------------------------------------------|
|------------------------------------------------------------------------------------------|
|------------------------------------------------------------------------------------------|
|
|x2


This next part is all tremolo picking. Each fret number indicates multiple string hits
and the space between each number is an approximate duration (except for the chords at the end).
[1:48]-[2:11]
|---------------------------------------------------------------------------------------|
|---------------------------------------------------------------------------------------|
|--------------------------------------------------3-3-3-3-3-3-3-3-5-5-5-5-10-10-10-10--|
|--------------------------------------------------3-3-3-3-3-3-3-3-5-5-5-5-10-10-10-10--|
|--5----7-8-7-5----5----7-8-7-5----5----8----5--3--1-1-1-1-1-1-1-1-3-3-3-3-8--8--8--8---|
|---------------------------------------------------------------------------------------|

Each of these octaves are played fast and so same as before each fret number 
represents multiple hits.
[2:11]-[2:34]
|-------------------------------------------------------------------------------|
|-------------------------------------------------------------------------------|
|--7----9-109-7----7----9-109-14----7----10---7--5--3----5--10------------------|
|--x----x-x-x-x----x----x-x-x-x-----x----x----x--x--x----x--x-------------------|
|--5----7-8-7-5----5----7-8-7-12----5----8----5--3--1----3--8-------------------|
|-------------------------------------------------------------------------------|

CHORUS

[2:34]-[end]
|--------------------------------------------------------|
|--6~----------------------------55-----5p0-5p0-5p0-5p0--|
|--7~----------------------------------------------------|
|--7~-------------------------55----5/7------------------|
|--------------------------44----------------------------|
|--------------------------------------------------------|
|
|------------------------------------------------------------------------------------------|
|--8-8-10-8-8-10-8-8--8-8-10-8-8-10-8-8--10-10-11-10-10-11-10-10--10-10-13-10-10-13-10-10--|
|------------------------------------------------------------------------------------------|
|------------------------------------------------------------------------------------------|
|------------------------------------------------------------------------------------------|
|------------------------------------------------------------------------------------------|
|
|x1

|--------------------------------------------------------|
|--------66----------66----------55-----5p0-5p0-5p0-5p0--|
|--------------------------------------------------------|
|-----77----77----77----77----55----5/7------------------|
|--55----------55----------44----------------------------|
|--------------------------------------------------------|
|
|------------------------------------------------------------------------------------------|
|--8-8-10-8-8-10-8-8--8-8-10-8-8-10-8-8--10-10-11-10-10-11-10-10--10-10-13-10-10-13-10-10--|
|------------------------------------------------------------------------------------------|
|------------------------------------------------------------------------------------------|
|------------------------------------------------------------------------------------------|
|------------------------------------------------------------------------------------------|
|
|x3
Tap to rate this tab
 
# A B C D E F G H I J K L M N O P Q R S T U V W X Y Z