Song name
# A B C D E F G H I J K L M N O P Q R S T U V W X Y Z

Comeback Kid - Trouble I Love tab

Help us improve GuitareTab! Take a short survey!
COMEBACK KID - THE TROUBLE I LOVE [GUITAR TAB] _________________________________
                                                              tabbed by Mattes87

[go to:  "http://www.youtube.com/watch?v=4iUyfVyACjw"   to see me play the song]



[*]=Palm Muted


_INTRO__________________________________________________________________________

Eb|----------------------------------------------------------------------------|
Bb|----------------------------------------------------------------------------|
Gb|--*--------*-*--*--------*--*--*-*--------*-*-*-----------------------------|
Db|--0-------10-7-12-------10-12-10-5-------10-7-0-----------------------------|
Ab|--0(14x)--10-7-12(13x)--10-12-10-5(14x)--10-7-0(16x)------------------------|
Db|--0-------10-7-12-------10-12-10-5-------10-7-0-----------------------------|



_VERSE:_________________________________________________________________________

("So here I go Again...")                                         ("And I'll...
Eb|----------------------------------------------------------------------------|
Bb|----------------------------------------------------------------------------|
Gb|-----------------------------------------------------------------12-12-12---|
Db|--5-----------------8-------------------7-------8-------10--------x--x--x---|
Ab|--5(15x)--8-8(16x)--8(16x)--5(8x)-8(8x)-7(16x)--8(16x)--10(13x)--10-10-10---|
Db|--5-------7-7-------8-------8-----7-----7-------8-------10------------------|

..never forget what killed us...")
Eb|----------------------------------------------------------------------------|
Bb|----------------------------------------------------------------------------|
Gb|--12-----10-----9-----9-10-7------------------------------------------------|
Db|---x(3x)--x(2x)-x(3x)-x--x-x(6x)--------------------------------------------|
Ab|--10------8-----7-----7--8-5------------------------------------------------|
Db|----------------------------------------------------------------------------|

("she screams to be alone...")    
Eb|----------------------------------------------------------------------------|
Bb|----------------------------------------------------------------------------|
Gb|----------------------*-------------------------9-9-----7-------------------|
Db|--5-------7-------8-8-8-----8------5------7-----x-x(3x)-x(5x)-8-------------|
Ab|--5(16x)--7(15x)--8-8-8(3x)-8(12x)-5(16x)-7(7x)-7-7-----5-----8(16x)--------|
Db|--5-------7-------8-8-8-----8------5------7-------------------8-------------|

                                         ("Can we ever take back the nights...")
Eb|----------------------------------------------------------------------------|
Bb|----------------------------------------------------------------------------|
Gb|--12-----10-----9-----9-10-7------14-----12-----10-9-----9-10-7-------------|
Db|---x(3x)--x(2x)-x(3x)-x--x-x(6x)---x(3x)--x(2x)--x-x(2x)-x--x-x(6x)---------|
Ab|--10------8-----7-----7--8-5------10------8------8-7-----7--8-5-------------|
Db|----------------------------------------------------------------------------|

      ("the nights we wasted on another fight...")
Eb|----------------------------------------------------------------------------|
Bb|----------------------------------------------------------------------------|
Gb|---------10-10-----7-----12-------------------------------------------------|
Db|---8------x--x(3x)-x(5x)--x(16x)--------------------------------------------|
Ab|---8(7x)--8--8-----5-----10-------------------------------------------------|
Db|---8------------------------------------------------------------------------|



_INTERLUDE_(SAME AS INTRO)______________________________________________________

Eb|----------------------------------------------------------------------------|
Bb|----------------------------------------------------------------------------|
Gb|--*--------*-*--*--------*--*--*-*--------*-*-*-----------------------------|
Db|--0-------10-7-12-------10-12-10-5-------10-7-0-----------------------------|
Ab|--0(14x)--10-7-12(13x)--10-12-10-5(14x)--10-7-0(16x)------------------------|
Db|--0-------10-7-12-------10-12-10-5-------10-7-0-----------------------------|



_ENDING_________________________________________________________________________

Eb|---------------------------------|3x, then:---------------------------------|
Bb|---------------------------------|------------------------------------------|
Gb|--12-----10-----9-----9-10-7-----|--7----9----10----12----14---17-----------|
Db|---x(3x)--x(2x)-x(3x)-x--x-x(6x)-|--x----x-----x-----x-----x----x-----------|
Ab|--10------8-----7-----7--8-5-----|--5----7-----8----10----12---15-----------|
Db|---------------------------------|------------------------------------------|

      ("This is the rest of our lives...")
Eb|----------------------------------------------------------------------------|
Bb|----------------------------------------------------------------------------|
Gb|--14-----12-----10-9-----9-10-7-------14-----12-----10-9-----9-10-7---------|
Db|---x(3x)--x(2x)--x-x(2x)-x--x-x(6x)----x(3x)--x(2x)--x-x(2x)-x--x-x(6x)-----|
Ab|--10------8------8-7-----7--8-5-------10------8------8-7-----7--8-5---------|
Db|----------------------------------------------------------------------------|

      ("Does this really all end tonight?..")         ("TAKE BACK OUR...
Eb|---------------------------------|1x, then:---------------------------------|
Bb|---------------------------------|------------------------------------------|
Gb|--12-----10-----9-----9-10-7-----|--7----9----10----12----14---17-----------|
Db|---x(3x)--x(2x)-x(3x)-x--x-x(6x)-|--x----x-----x-----x-----x----x-----------|
Ab|--10------8-----7-----7--8-5-----|--5----7-----8----10----12---15-----------|
Db|---------------------------------|------------------------------------------|

...NIGHTS!")
Eb|----------------------------------------------------------------------------|
Bb|----------------------------------------------------------------------------|
Gb|--19-------21--------------7------9------10---------------------------------|
Db|---x(16x)---x(16x)--0------x------x-------x---------------------------------|
Ab|--17-------19-------0(8x)--5(8x)--7(8x)---8(8x)-----------------------------|
Db|--------------------0------0------0-------0---------------------------------|




[Visit: "http://www.youtube.com/profile?user=mattes87&view=videos" to see more 
 my Guitar Covers on Youtube. Rate and Comment on them if you like to... 
 If you like to reply to this tab, also do it on youtube, my account name is
 "Mattes87", thats the way i see it the fastest. Hopefully you enjoyed this tab]


Related for Trouble I Love tab