Guitaretab - guitar tabs
Song name
# A B C D E F G H I J K L M N O P Q R S T U V W X Y Z

Comeback Kid - Broadcasting tab

Artist: Comeback Kid
Album: Broadcasting 2007
Song: Broadcasting
Tuning: D#/A#/F#/C#/G#/C#
Tabbed by: gizmoss
email: gizmosswrth@gmail.com


LEGEND:
x-muted string
t-ten (10) fret
e-eleven (11) fret
/-slide up
\-slide down




First of all I will not write that this is how it's suppose to be played, cos me 
and you will play it on one guitar and Comeback Kid plays its on three...So there 
will be allways some differences...Also this are my second tabs so there might be 
some errors or mistakes (I tried my best)...If you find some please mail me so I 
can correct them :)
Also I would appologise for my english ^^...So have fun with those tabs and lets 
your guitar smoke cos with those tab configuration you must know pretty well your 
fretboard :D  ...fast...faster...Comeback Kid......

x----------------------------------------------------|
x----------------------------------------------------|
x----------------------------------------------------|
x-----------------ttt-8888-8-7-0-----------------ttt-|This is Bas Guitar Part
x-5-555-7777-8888----------------5-555-7777-8888-----|From there guitar one and two
x----------------------------------------------------|starts playing as follow...


x----------------------------------------------------|
x----------------------------------------------------|second guitar cut in in the middle while
x----------------------------------------------------| firs finsh all stroaks
x-----------------ttt-----------------ttt-8888-8-7-0-|if you want to play it its easy to
x-5-555-7777-8888-----5-555-7777-8888----------------| figuring it out
x----------------------------------------------------|
                     

x----------------------------------------------|
x----------------------------------------------|
x-7-777-9999-tttt-171717-15151515-14-77777777--|
x-x-xxx-xxxx-xxxx-x-x-x--x-x-x-x--x--xxxxxxxx--| x3
x-5-555-7777-8888-151515-13131313-12-55555555--|
x----------------------------------------------|


x------------------------------------------------------|
x------------------------------------------------------|
x-1212-12-12-14-12--12-t-9-7--7-9-t-14-12-121212121212-|
x-x-x--x--x--x--x---x--x-x-x--x-x-x-x--x--x-x-x-x-x-x--|
x-1010-10-10-12-10--10-8-7-5--5-t-8-12-10-101010101010-|
x------------------------------------------------------|


x-------------------------------------------------------------------------|
x-------------------------------------------------------------------------|
x-1414141414141414-t-99999999-tttttttt-1212121212121212-14141414-15151515-|
x-x-x-x-x-x-x-x-x--x-xxxxxxxx-xxxxxxxx-x-x-x-x-x-x-x-x--x-x-x-x--x-x-x-x--|
x-1212121212121212-8-77777777-88888888-1010101010101010-12121212-13131313-|
x-------------------------------------------------------------------------|


x---------------------------------------------|
x---------------------------------------------|
x-77777777-99999999-tttttttt-1212121212121212-|
x-xxxxxxxx-xxxxxxxx-xxxxxxxx-x-x-x-x-x-x-x-x--|
x-55555555-77777777-88888888-1010101010101010-|
x---------------------------------------------|


x----------------------------------------------------------------------------------------------|
x----------------------------------------------------------------------------------------------|
x-7-7-7-777-----------7-7-7-777-------1212121212-/-1414141414141414-1212121212121212 14     ---|
x-7-7-7-777-8-8-8-888-7-7-7-777-8-8-8-x-x-x-x-x--/-x-x-x-x-x-x-x-x--x-x-x-x-x-x-x-x--x-(x16)---|
x-5-5-5-555-8-8-8-888-5-5-5-555-8-8-8-1010101010-/-1212121212121212-1010101010101010-12     ---|
x-----------8-8-8-888-----------8-8-8----------------------------------------------------------|

[ Tab from: http://www.guitaretab.com/c/comeback-kid/280904.html ]
x-----------------------------------------|
x-----------------------------------------|
x-7-7-7-777-------------------------------|
x-7-7-7-777-5-5-5-555-8-8-8-888-8-8-8-888-|
x-5-5-5-555-5-5-5-555-8-8-8-888-8-8-8-888-|
x-----------5-5-5-555-8-8-8-888-8-8-8-888-|


x-----------------------------------------------------------------------------------|
x-----------------------------------------------------------------------------------|
x-777-/-99-/-t-/-14-\-12-\-eeeeeeee-17-15-t-17-15-t-t9ttt-121212-141414--15--141519-|
x-xxx---xx---x---x----x----xxxxxxxx-x--x--x-x--x--x-xxxxx-x-x-x--x-x-x---x---x-x-x--| x2
x-555-/-77-/-8-/-12-\-10-\-99999999-15-13-8-15-13-8-87888-101010-121212--13--121317-|
x-----------------------------------------------------------------------------------|
  [                     play it two times                             ]  [at second time
                                                                          end it with this]

x---------------------------------------|
x---------------------------------------|
x-7-14-12-t-7-14-12-t-7-14-12-14-15-----| 
x-7-x--x--x-x-x--x--x-x-x--x--x--x------| x2
x-5-12-10-8-5-12-10-8-5-12-10-12-13-----|
x---------------------------------------|


x----------------------------------------------------------|
x----------------------------------------------------------|
x-19 (x16) xx-77-99-xxxx-99-tt-xxxx-tt-1212-xxxx-1212-1414-|
x----------xx-xx-xx-xxxx-xx-xx-xxxx-xx-x-x--xxxx-x-x--x-x--| x2
x----------xx-55-77-xxxx-77-88-xxxx-88-1010-xxxx-1010-1212-|
x----------------------------------------------------------|


x---------------------------------------|
x---------------------------------------|
x-14141414-12-17-14-tttt-9999-----------|
x-x-x-x-x--x--x--x--xxxx-xxxx-----------|
x-12121212-10-15-12-8888-7777-----------|
x---------------------------------------|


x-------------------------------------------------------------|
x-------------------------------------------------------------|
x----------------------------------------------------15-17-19-|
x-------------------------------------------------------------|
x-5--5--5--5-55--7--7--7--7-77--10--10--10--10--1010----------|
x-------------------------------------------------------------|
  [         those are fast 16th with muting        ]


x----------------------------------------------------------------------------------------------|
x----------------------------------------------------------------------------------------------|
x-7-7-7-777-----------7-7-7-777-------1212121212-/-1414141414141414-1212121212121212 14     ---|
x-7-7-7-777-8-8-8-888-7-7-7-777-8-8-8-x-x-x-x-x--/-x-x-x-x-x-x-x-x--x-x-x-x-x-x-x-x--x-(x16)---|
x-5-5-5-555-8-8-8-888-5-5-5-555-8-8-8-1010101010-/-1212121212121212-1010101010101010-12     ---|
x-----------8-8-8-888-----------8-8-8----------------------------------------------------------|


x-----------------------------------------|
x-----------------------------------------|
x-7-7-7-777-------------------------------|
x-7-7-7-777-5-5-5-555-8-8-8-888-8-8-8-888-|
x-5-5-5-555-5-5-5-555-8-8-8-888-8-8-8-888-|
x-----------5-5-5-555-8-8-8-888-8-8-8-888-|



x------------------------------------------------------------------------|keep this stroke to
x------------------------------------------------------------------------|  the end of song
x-777-/-99-/-t-/-14-\-12-\-eeeeeeee-17-15-t-17-15-t-t9ttt-121212-141414--|  or change it to 7
x-xxx---xx---x---x----x----xxxxxxxx-x--x--x-x--x--x-xxxxx-x-x-x--x-x-x---|                  7
x-555-/-77-/-8-/-12-\-10-\-99999999-15-13-8-15-13-8-87888-101010-121212--|                  5
x------------------------------------------------------------------------|                 
 [                          play it two times                          ]




    ----> END <----

Related for Broadcasting tab
Broadcasting chords by Comeback Kid