Song name
# A B C D E F G H I J K L M N O P Q R S T U V W X Y Z

Comeback Kid - Losing Patience tab

                 Artist: Comeback Kid
                 Song:   Losing Patience
                 Album:  Wake The Dead

                 Tabbed by: Shawn 
                 E-Mail:    Shizawn504@hotmail.com

                 Tuning: Drop D

e|------------------------------------------------------------------------|
B|------------------------------------------------------------------------|
G|------------------------------------------------------------------------|
D|-2-2-2-2-2-2-2-2-2-2-2-2-2-2-2-2--7-7-7-7-7-7-7--10-10-10-10-10-10-10---|
A|-2-2-2-2-2-2-2-2-2-2-2-2-2-2-2-2--7-7-7-7-7-7-7--10-10-10-10-10-10-10---|
E|-2-2-2-2-2-2-2-2-2-2-2-2-2-2-2-2--7-7-7-7-7-7-7--10-10-10-10-10-10-10---|
   . . . . . . . . . . . . . . . .  . . . . . . .  .  .  .  .  .  .  .


e|------------------------------------------------------------------------|
B|------------------------------------------------------------------------|
G|------------------------------------------------------------------------|
D|-2-2-2-2-2--0-0-0-0-0--7-7-7-7--10-10-10-10-10--------------------------|
A|-2-2-2-2-2--0-0-0-0-0--7-7-7-7--10-10-10-10-10--------------------------|
E|-2-2-2-2-2--0-0-0-0-0--7-7-7-7--10-10-10-10-10--------------------------|



e|------------------------------------------------------------------------|
B|------------------------------------------------------------------------|
G|------------------------------------------------------------------------|
D|--9-999-9--9-9--9-9----10-----------------------------------------------|
A|--9-999-9--9-9--9-9----10-----------------------------------------------|
E|--9-999-9--9-9--9-9----10-----------------------------------------------|
      ...               
      

e|------------------------------------------------------------------------|
B|------------------------------------------------------------------------|
G|------------------------------------------------------------------------|
D|-2-2-2-2-2-2-2--5-0-0--7-7-7-7-7--10-10-10-10-10------------------------|
A|-2-2-2-2-2-2-2--5-0-0--7-7-7-7-7--10-10-10-10-10------------------------|
E|-2-2-2-2-2-2-2--5-0-0--7-7-7-7-7--10-10-10-10-10------------------------|



e|------------------------------------------------------------------------|
B|------------------------------------------------------------------------|
G|------------------------------------------------------------------------|
D|-2-2-2-2-2--0-0-0-0-0--7-7-7-7--10-10-10-10-10--------------------------|
A|-2-2-2-2-2--0-0-0-0-0--7-7-7-7--10-10-10-10-10--------------------------|
E|-2-2-2-2-2--0-0-0-0-0--7-7-7-7--10-10-10-10-10--------------------------|



guitar 2
e|------------------------------------------------------------------------|
B|------------------------------------------------------------------------|
G|-9-9-9-9-9-9-9-9-9-9-9-9-9-9-9-9-9--12-12-12-12-12-12-------------------|
D|-X-X-X-X-X-X-X-X-X-X-X-X-X-X-X-X-X---X--X--X--X--X--X-------------------|
A|-7-7-7-7-7-7-7-7-7-7-7-7-7-7-7-7-7--10-10-10-10-10-10-------------------|
E|------------------------------------------------------------------------|
Tap to rate this tab
# A B C D E F G H I J K L M N O P Q R S T U V W X Y Z